  0
SECTION
  2
HEADER
  9
$ACADVER
  1
AC1015
  9
$ACADMAINTVER
 70
     6
  9
$DWGCODEPAGE
  3
ANSI_1254
  9
$INSBASE
 10
0.0
 20
0.0
 30
0.0
  9
$EXTMIN
 10
0.0
 20
0.0
 30
0.0
  9
$EXTMAX
 10
279.4
 20
215.9
 30
0.0
  9
$LIMMIN
 10
0.0
 20
0.0
  9
$LIMMAX
 10
279.4
 20
215.9
  9
$ORTHOMODE
 70
     0
  9
$REGENMODE
 70
     1
  9
$FILLMODE
 70
     1
  9
$QTEXTMODE
 70
     0
  9
$MIRRTEXT
 70
     1
  9
$LTSCALE
 40
1.0
  9
$ATTMODE
 70
     1
  9
$TEXTSIZE
 40
3.5
  9
$TRACEWID
 40
1.0
  9
$TEXTSTYLE
  7
Standard
  9
$CLAYER
  8
0
  9
$CELTYPE
  6
ByLayer
  9
$CECOLOR
 62
   256
  9
$CELTSCALE
 40
1.0
  9
$DISPSILH
 70
     0
  9
$DIMSCALE
 40
1.0
  9
$DIMASZ
 40
3.5
  9
$DIMEXO
 40
1.0
  9
$DIMDLI
 40
3.75
  9
$DIMRND
 40
0.0
  9
$DIMDLE
 40
0.0
  9
$DIMEXE
 40
1.0
  9
$DIMTP
 40
0.0
  9
$DIMTM
 40
0.0
  9
$DIMTXT
 40
3.5
  9
$DIMCEN
 40
2.5
  9
$DIMTSZ
 40
0.0
  9
$DIMTOL
 70
     0
  9
$DIMLIM
 70
     0
  9
$DIMTIH
 70
     1
  9
$DIMTOH
 70
     1
  9
$DIMSE1
 70
     0
  9
$DIMSE2
 70
     0
  9
$DIMTAD
 70
     1
  9
$DIMZIN
 70
     0
  9
$DIMBLK
  1

  9
$DIMASO
 70
     1
  9
$DIMSHO
 70
     1
  9
$DIMPOST
  1

  9
$DIMAPOST
  1

  9
$DIMALT
 70
     0
  9
$DIMALTD
 70
     3
  9
$DIMALTF
 40
0.0393700787
  9
$DIMLFAC
 40
1.0
  9
$DIMTOFL
 70
     1
  9
$DIMTVP
 40
0.0
  9
$DIMTIX
 70
     0
  9
$DIMSOXD
 70
     0
  9
$DIMSAH
 70
     0
  9
$DIMBLK1
  1

  9
$DIMBLK2
  1

  9
$DIMSTYLE
  2
ISO-25
  9
$DIMCLRD
 70
     0
  9
$DIMCLRE
 70
     0
  9
$DIMCLRT
 70
     0
  9
$DIMTFAC
 40
1.0
  9
$DIMGAP
 40
1.524
  9
$DIMJUST
 70
     0
  9
$DIMSD1
 70
     0
  9
$DIMSD2
 70
     0
  9
$DIMTOLJ
 70
     0
  9
$DIMTZIN
 70
     0
  9
$DIMALTZ
 70
     0
  9
$DIMALTTZ
 70
     0
  9
$DIMUPT
 70
     0
  9
$DIMDEC
 70
     2
  9
$DIMTDEC
 70
     2
  9
$DIMALTU
 70
     2
  9
$DIMALTTD
 70
     3
  9
$DIMTXSTY
  7
Standard
  9
$DIMAUNIT
 70
     0
  9
$DIMADEC
 70
     2
  9
$DIMALTRND
 40
0.0
  9
$DIMAZIN
 70
     0
  9
$DIMDSEP
 70
    44
  9
$DIMATFIT
 70
     3
  9
$DIMFRAC
 70
     0
  9
$DIMLDRBLK
  1

  9
$DIMLUNIT
 70
     2
  9
$DIMLWD
 70
    -2
  9
$DIMLWE
 70
    -2
  9
$DIMTMOVE
 70
     0
  9
$LUNITS
 70
     2
  9
$LUPREC
 70
     2
  9
$SKETCHINC
 40
1.0
  9
$FILLETRAD
 40
10.0
  9
$AUNITS
 70
     0
  9
$AUPREC
 70
     2
  9
$MENU
  1
.
  9
$ELEVATION
 40
0.0
  9
$PELEVATION
 40
0.0
  9
$THICKNESS
 40
0.0
  9
$LIMCHECK
 70
     0
  9
$CHAMFERA
 40
0.0
  9
$CHAMFERB
 40
0.0
  9
$CHAMFERC
 40
0.0
  9
$CHAMFERD
 40
0.0
  9
$SKPOLY
 70
     0
  9
$TDCREATE
 40
2459741.591109271
  9
$TDUCREATE
 40
2459741.466109271
  9
$TDUPDATE
 40
2459741.591112384
  9
$TDUUPDATE
 40
2459741.466112384
  9
$TDINDWG
 40
0.0000000116
  9
$TDUSRTIMER
 40
0.0000000116
  9
$USRTIMER
 70
     1
  9
$ANGBASE
 50
0.0
  9
$ANGDIR
 70
     0
  9
$PDMODE
 70
     0
  9
$PDSIZE
 40
-1.0
  9
$PLINEWID
 40
0.0
  9
$SPLFRAME
 70
     0
  9
$SPLINETYPE
 70
     6
  9
$SPLINESEGS
 70
     8
  9
$HANDSEED
  5
268
  9
$SURFTAB1
 70
     6
  9
$SURFTAB2
 70
     6
  9
$SURFTYPE
 70
     6
  9
$SURFU
 70
     6
  9
$SURFV
 70
     6
  9
$UCSBASE
  2

  9
$UCSNAME
  2

  9
$UCSORG
 10
0.0
 20
0.0
 30
0.0
  9
$UCSXDIR
 10
1.0
 20
0.0
 30
0.0
  9
$UCSYDIR
 10
0.0
 20
1.0
 30
0.0
  9
$UCSORTHOREF
  2

  9
$UCSORTHOVIEW
 70
     0
  9
$UCSORGTOP
 10
0.0
 20
0.0
 30
0.0
  9
$UCSORGBOTTOM
 10
0.0
 20
0.0
 30
0.0
  9
$UCSORGLEFT
 10
0.0
 20
0.0
 30
0.0
  9
$UCSORGRIGHT
 10
0.0
 20
0.0
 30
0.0
  9
$UCSORGFRONT
 10
0.0
 20
0.0
 30
0.0
  9
$UCSORGBACK
 10
0.0
 20
0.0
 30
0.0
  9
$PUCSBASE
  2

  9
$PUCSNAME
  2

  9
$PUCSORG
 10
0.0
 20
0.0
 30
0.0
  9
$PUCSXDIR
 10
1.0
 20
0.0
 30
0.0
  9
$PUCSYDIR
 10
0.0
 20
1.0
 30
0.0
  9
$PUCSORTHOREF
  2

  9
$PUCSORTHOVIEW
 70
     0
  9
$PUCSORGTOP
 10
0.0
 20
0.0
 30
0.0
  9
$PUCSORGBOTTOM
 10
0.0
 20
0.0
 30
0.0
  9
$PUCSORGLEFT
 10
0.0
 20
0.0
 30
0.0
  9
$PUCSORGRIGHT
 10
0.0
 20
0.0
 30
0.0
  9
$PUCSORGFRONT
 10
0.0
 20
0.0
 30
0.0
  9
$PUCSORGBACK
 10
0.0
 20
0.0
 30
0.0
  9
$USERI1
 70
     0
  9
$USERI2
 70
     0
  9
$USERI3
 70
     0
  9
$USERI4
 70
     0
  9
$USERI5
 70
     0
  9
$USERR1
 40
0.0
  9
$USERR2
 40
0.0
  9
$USERR3
 40
0.0
  9
$USERR4
 40
0.0
  9
$USERR5
 40
0.0
  9
$WORLDVIEW
 70
     1
  9
$SHADEDGE
 70
     3
  9
$SHADEDIF
 70
    70
  9
$TILEMODE
 70
     1
  9
$MAXACTVP
 70
    64
  9
$PINSBASE
 10
0.0
 20
0.0
 30
0.0
  9
$PLIMCHECK
 70
     0
  9
$PEXTMIN
 10
1.0000000000E+20
 20
1.0000000000E+20
 30
1.0000000000E+20
  9
$PEXTMAX
 10
-1.0000000000E+20
 20
-1.0000000000E+20
 30
-1.0000000000E+20
  9
$PLIMMIN
 10
0.0
 20
0.0
  9
$PLIMMAX
 10
420.0
 20
297.0
  9
$UNITMODE
 70
     0
  9
$VISRETAIN
 70
     1
  9
$PLINEGEN
 70
     0
  9
$PSLTSCALE
 70
     1
  9
$TREEDEPTH
 70
  3020
  9
$CMLSTYLE
  2
Standard
  9
$CMLJUST
 70
     0
  9
$CMLSCALE
 40
20.0
  9
$PROXYGRAPHICS
 70
     1
  9
$MEASUREMENT
 70
     1
  9
$CELWEIGHT
370
    -1
  9
$ENDCAPS
280
     0
  9
$JOINSTYLE
280
     0
  9
$LWDISPLAY
290
     1
  9
$INSUNITS
 70
     4
  9
$HYPERLINKBASE
  1

  9
$STYLESHEET
  1

  9
$XEDIT
290
     1
  9
$CEPSNTYPE
380
     0
  9
$PSTYLEMODE
290
     1
  9
$FINGERPRINTGUID
  2
{67235c37-a8a3-4506-9f86-ac1ca5235b8b}
  9
$VERSIONGUID
  2
{FAEB1C32-E019-11D5-929B-00C0DF256EC4}
  9
$EXTNAMES
290
     1
  9
$PSVPSCALE
 40
0.0
  9
$OLESTARTUP
290
     0
  0
ENDSEC
  0
SECTION
  2
CLASSES
  0
CLASS
  1
ACDBDICTIONARYWDFLT
  2
AcDbDictionaryWithDefault
  3
ObjectDBX Classes
 90
        0
280
     0
281
     0
  0
CLASS
  1
VISUALSTYLE
  2
AcDbVisualStyle
  3
ObjectDBX Classes
 90
     4095
280
     0
281
     0
  0
CLASS
  1
MATERIAL
  2
AcDbMaterial
  3
ObjectDBX Classes
 90
     1153
280
     0
281
     0
  0
CLASS
  1
SCALE
  2
AcDbScale
  3
ObjectDBX Classes
 90
     1153
280
     0
281
     0
  0
CLASS
  1
TABLESTYLE
  2
AcDbTableStyle
  3
ObjectDBX Classes
 90
     4095
280
     0
281
     0
  0
CLASS
  1
MLEADERSTYLE
  2
AcDbMLeaderStyle
  3
ACDB_MLEADERSTYLE_CLASS
 90
     4095
280
     0
281
     0
  0
CLASS
  1
SUN
  2
AcDbSun
  3
SCENEOE
 90
     1153
280
     0
281
     0
  0
CLASS
  1
ACDBPLACEHOLDER
  2
AcDbPlaceHolder
  3
ObjectDBX Classes
 90
        0
280
     0
281
     0
  0
CLASS
  1
LAYOUT
  2
AcDbLayout
  3
ObjectDBX Classes
 90
        0
280
     0
281
     0
  0
ENDSEC
  0
SECTION
  2
TABLES
  0
TABLE
  2
VPORT
  5
8
330
0
100
AcDbSymbolTable
 70
     1
  0
VPORT
  5
29
330
8
100
AcDbSymbolTableRecord
100
AcDbViewportTableRecord
  2
*Active
 70
     0
 10
0.0
 20
0.0
 11
1.0
 21
1.0
 12
139.7
 22
107.95
 13
0.0
 23
0.0
 14
10.0
 24
10.0
 15
10.0
 25
10.0
 16
0.0
 26
0.0
 36
1.0
 17
0.0
 27
0.0
 37
0.0
 40
215.9
 41
1.2941176471
 42
50.0
 43
0.0
 44
0.0
 50
0.0
 51
0.0
 71
     0
 72
  2000
 73
     1
 74
     3
 75
     0
 76
     0
 77
     0
 78
     0
281
     0
 65
     1
110
0.0
120
0.0
130
0.0
111
1.0
121
0.0
131
0.0
112
0.0
122
1.0
132
0.0
 79
     0
146
0.0
  0
ENDTAB
  0
TABLE
  2
LTYPE
  5
5
330
0
100
AcDbSymbolTable
 70
     6
  0
LTYPE
  5
14
330
5
100
AcDbSymbolTableRecord
100
AcDbLinetypeTableRecord
  2
ByBlock
 70
     0
  3

 72
    65
 73
     0
 40
0.0
  0
LTYPE
  5
15
330
5
100
AcDbSymbolTableRecord
100
AcDbLinetypeTableRecord
  2
ByLayer
 70
     0
  3

 72
    65
 73
     0
 40
0.0
  0
LTYPE
  5
16
330
5
100
AcDbSymbolTableRecord
100
AcDbLinetypeTableRecord
  2
Continuous
 70
     0
  3
Solid line
 72
    65
 73
     0
 40
0.0
  0
LTYPE
  5
6E
330
5
100
AcDbSymbolTableRecord
100
AcDbLinetypeTableRecord
  2
HIDDEN
 70
     0
  3
Hidden __ __ __ __ __ __ __ __ __ __ __ __ __ __
 72
    65
 73
     2
 40
1.905
 49
1.27
 74
     0
 49
-0.635
 74
     0
  0
LTYPE
  5
6F
330
5
100
AcDbSymbolTableRecord
100
AcDbLinetypeTableRecord
  2
PHANTOM
 70
     0
  3
Phantom ______  __  __  ______  __  __  ______
 72
    65
 73
     6
 40
12.7
 49
6.35
 74
     0
 49
-1.27
 74
     0
 49
1.27
 74
     0
 49
-1.27
 74
     0
 49
1.27
 74
     0
 49
-1.27
 74
     0
  0
LTYPE
  5
70
330
5
100
AcDbSymbolTableRecord
100
AcDbLinetypeTableRecord
  2
CENTER
 70
     0
  3
Center ____ _ ____ _ ____ _ ____ _ ____ _ ____
 72
    65
 73
     4
 40
10.16
 49
6.35
 74
     0
 49
-1.27
 74
     0
 49
1.27
 74
     0
 49
-1.27
 74
     0
  0
LTYPE
  5
71
330
5
100
AcDbSymbolTableRecord
100
AcDbLinetypeTableRecord
  2
CENTERX2
 70
     0
  3
Center (2x) ________  __  ________  __  _____
 72
    65
 73
     4
 40
20.32
 49
12.7
 74
     0
 49
-2.54
 74
     0
 49
2.54
 74
     0
 49
-2.54
 74
     0
  0
LTYPE
  5
72
330
5
100
AcDbSymbolTableRecord
100
AcDbLinetypeTableRecord
  2
DOT2
 70
     0
  3
Dot (.5x) ........................................
 72
    65
 73
     2
 40
0.635
 49
0.0
 74
     0
 49
-0.635
 74
     0
  0
ENDTAB
  0
TABLE
  2
LAYER
  5
2
330
0
100
AcDbSymbolTable
 70
    17
  0
LAYER
  5
10
330
2
100
AcDbSymbolTableRecord
100
AcDbLayerTableRecord
  2
0
 70
     0
 62
     7
  6
Continuous
370
    -3
390
F
  0
LAYER
  5
73
330
2
100
AcDbSymbolTableRecord
100
AcDbLayerTableRecord
  2
FORMAT
 70
     0
 62
     7
  6
Continuous
370
    -3
390
F
  0
LAYER
  5
74
330
2
100
AcDbSymbolTableRecord
100
AcDbLayerTableRecord
  2
YARDIMCI_GEOMETRI
 70
     0
 62
    -6
  6
Continuous
290
     0
370
    -3
390
F
  0
LAYER
  5
75
330
2
100
AcDbSymbolTableRecord
100
AcDbLayerTableRecord
  2
SAYFA_CERCEVESI
 70
     0
 62
     7
  6
Continuous
370
    25
390
F
  0
LAYER
  5
76
330
2
100
AcDbSymbolTableRecord
100
AcDbLayerTableRecord
  2
ANTET
 70
     0
 62
     7
  6
Continuous
370
    -3
390
F
  0
LAYER
  5
77
330
2
100
AcDbSymbolTableRecord
100
AcDbLayerTableRecord
  2
OLCU
 70
     0
 62
   150
  6
Continuous
370
    -3
390
F
  0
LAYER
  5
78
330
2
100
AcDbSymbolTableRecord
100
AcDbLayerTableRecord
  2
METIN
 70
     0
 62
    96
  6
Continuous
370
    -3
390
F
  0
LAYER
  5
79
330
2
100
AcDbSymbolTableRecord
100
AcDbLayerTableRecord
  2
BALON
 70
     0
 62
     5
  6
Continuous
370
    -3
390
F
  0
LAYER
  5
7A
330
2
100
AcDbSymbolTableRecord
100
AcDbLayerTableRecord
  2
VURGU
 70
     0
 62
     7
  6
Continuous
370
    -3
390
F
  0
LAYER
  5
7B
330
2
100
AcDbSymbolTableRecord
100
AcDbLayerTableRecord
  2
SILIK
 70
     0
 62
     7
  6
Continuous
370
    -3
390
F
  0
LAYER
  5
7C
330
2
100
AcDbSymbolTableRecord
100
AcDbLayerTableRecord
  2
MODEL
 70
     0
 62
     7
  6
Continuous
370
    -3
390
F
  0
LAYER
  5
7D
330
2
100
AcDbSymbolTableRecord
100
AcDbLayerTableRecord
  2
DETAYLANDıRMA
 70
     0
 62
   190
  6
Continuous
370
    -3
390
F
  0
LAYER
  5
7E
330
2
100
AcDbSymbolTableRecord
100
AcDbLayerTableRecord
  2
TOLERANS
 70
     0
 62
   230
  6
Continuous
370
    -3
390
F
  0
LAYER
  5
7F
330
2
100
AcDbSymbolTableRecord
100
AcDbLayerTableRecord
  2
MERKEZ_CIZGILERI
 70
     0
 62
    30
  6
Continuous
370
    -3
390
F
  0
LAYER
  5
80
330
2
100
AcDbSymbolTableRecord
100
AcDbLayerTableRecord
  2
KESIT-DETAY_CIZGILERI
 70
     0
 62
     7
  6
Continuous
370
    -3
390
F
  0
LAYER
  5
81
330
2
100
AcDbSymbolTableRecord
100
AcDbLayerTableRecord
  2
\U+041E\U+0421\U+0415\U+0412\U+042B\U+0415
 70
     0
 62
     7
  6
Continuous
370
    -3
390
F
  0
LAYER
  5
82
330
2
100
AcDbSymbolTableRecord
100
AcDbLayerTableRecord
  2
\U+0412\U+041E\U+0414\U+042F\U+041D\U+042B\U+0415_\U+0417\U+041D\U+0410\U+041A\U+0418
 70
     0
 62
    11
  6
Continuous
370
    -3
390
F
  0
ENDTAB
  0
TABLE
  2
STYLE
  5
3
330
0
100
AcDbSymbolTable
 70
     1
  0
STYLE
  5
11
330
3
100
AcDbSymbolTableRecord
100
AcDbTextStyleTableRecord
  2
Standard
 70
     0
 40
0.0
 41
1.0
 50
0.0
 71
     0
 42
3.5
  3
txt
  4

  0
ENDTAB
  0
TABLE
  2
VIEW
  5
6
330
0
100
AcDbSymbolTable
 70
     0
  0
ENDTAB
  0
TABLE
  2
UCS
  5
7
330
0
100
AcDbSymbolTable
 70
     0
  0
ENDTAB
  0
TABLE
  2
APPID
  5
9
330
0
100
AcDbSymbolTable
 70
     1
  0
APPID
  5
12
330
9
100
AcDbSymbolTableRecord
100
AcDbRegAppTableRecord
  2
ACAD
 70
     0
  0
ENDTAB
  0
TABLE
  2
DIMSTYLE
  5
A
330
0
100
AcDbSymbolTable
 70
     1
100
AcDbDimStyleTable
  0
DIMSTYLE
105
27
330
A
100
AcDbSymbolTableRecord
100
AcDbDimStyleTableRecord
  2
ISO-25
 70
     0
 41
2.5
 42
0.625
 43
3.75
 44
1.25
 73
     0
 74
     0
 77
     1
 78
     8
140
2.5
141
2.5
143
0.0393700787
147
0.625
171
     3
172
     1
178
     0
271
     2
272
     2
274
     3
278
    44
283
     0
284
     8
340
11
  0
ENDTAB
  0
TABLE
  2
BLOCK_RECORD
  5
1
330
0
100
AcDbSymbolTable
 70
    22
  0
BLOCK_RECORD
  5
1F
330
1
100
AcDbSymbolTableRecord
100
AcDbBlockTableRecord
  2
*Model_Space
340
22
  0
BLOCK_RECORD
  5
1B
330
1
100
AcDbSymbolTableRecord
100
AcDbBlockTableRecord
  2
*Paper_Space
340
1E
  0
BLOCK_RECORD
  5
23
330
1
100
AcDbSymbolTableRecord
100
AcDbBlockTableRecord
  2
*Paper_Space0
340
26
  0
BLOCK_RECORD
  5
AF
330
1
100
AcDbSymbolTableRecord
100
AcDbBlockTableRecord
  2
SW_CENTERMARKSYMBOL_0
340
0
102
{BLKREFS
331
BA
102
}
  0
BLOCK_RECORD
  5
BB
330
1
100
AcDbSymbolTableRecord
100
AcDbBlockTableRecord
  2
SW_CENTERMARKSYMBOL_1
340
0
102
{BLKREFS
331
C6
102
}
  0
BLOCK_RECORD
  5
C7
330
1
100
AcDbSymbolTableRecord
100
AcDbBlockTableRecord
  2
SW_CENTERMARKSYMBOL_2
340
0
102
{BLKREFS
331
D2
102
}
  0
BLOCK_RECORD
  5
D3
330
1
100
AcDbSymbolTableRecord
100
AcDbBlockTableRecord
  2
SW_CENTERMARKSYMBOL_3
340
0
102
{BLKREFS
331
DE
102
}
  0
BLOCK_RECORD
  5
DF
330
1
100
AcDbSymbolTableRecord
100
AcDbBlockTableRecord
  2
SW_CENTERMARKSYMBOL_4
340
0
102
{BLKREFS
331
EA
102
}
  0
BLOCK_RECORD
  5
EB
330
1
100
AcDbSymbolTableRecord
100
AcDbBlockTableRecord
  2
SW_CENTERMARKSYMBOL_5
340
0
102
{BLKREFS
331
F6
102
}
  0
BLOCK_RECORD
  5
F7
330
1
100
AcDbSymbolTableRecord
100
AcDbBlockTableRecord
  2
SW_CENTERMARKSYMBOL_6
340
0
102
{BLKREFS
331
102
102
}
  0
BLOCK_RECORD
  5
103
330
1
100
AcDbSymbolTableRecord
100
AcDbBlockTableRecord
  2
SW_CENTERMARKSYMBOL_7
340
0
102
{BLKREFS
331
10E
102
}
  0
BLOCK_RECORD
  5
10F
330
1
100
AcDbSymbolTableRecord
100
AcDbBlockTableRecord
  2
SW_CENTERMARKSYMBOL_8
340
0
102
{BLKREFS
331
11A
102
}
  0
BLOCK_RECORD
  5
11B
330
1
100
AcDbSymbolTableRecord
100
AcDbBlockTableRecord
  2
SW_CENTERMARKSYMBOL_9
340
0
102
{BLKREFS
331
126
102
}
  0
BLOCK_RECORD
  5
127
330
1
100
AcDbSymbolTableRecord
100
AcDbBlockTableRecord
  2
SW_CENTERMARKSYMBOL_10
340
0
102
{BLKREFS
331
132
102
}
  0
BLOCK_RECORD
  5
133
330
1
100
AcDbSymbolTableRecord
100
AcDbBlockTableRecord
  2
SW_CENTERMARKSYMBOL_11
340
0
102
{BLKREFS
331
13E
102
}
  0
BLOCK_RECORD
  5
13F
330
1
100
AcDbSymbolTableRecord
100
AcDbBlockTableRecord
  2
SW_CENTERMARKSYMBOL_12
340
0
102
{BLKREFS
331
14A
102
}
  0
BLOCK_RECORD
  5
14B
330
1
100
AcDbSymbolTableRecord
100
AcDbBlockTableRecord
  2
SW_CENTERMARKSYMBOL_13
340
0
102
{BLKREFS
331
156
102
}
  0
BLOCK_RECORD
  5
157
330
1
100
AcDbSymbolTableRecord
100
AcDbBlockTableRecord
  2
SW_CENTERMARKSYMBOL_14
340
0
102
{BLKREFS
331
162
102
}
  0
BLOCK_RECORD
  5
163
330
1
100
AcDbSymbolTableRecord
100
AcDbBlockTableRecord
  2
SW_CENTERMARKSYMBOL_15
340
0
102
{BLKREFS
331
16E
102
}
  0
BLOCK_RECORD
  5
16F
330
1
100
AcDbSymbolTableRecord
100
AcDbBlockTableRecord
  2
SW_CENTERMARKSYMBOL_16
340
0
102
{BLKREFS
331
17A
102
}
  0
BLOCK_RECORD
  5
17B
330
1
100
AcDbSymbolTableRecord
100
AcDbBlockTableRecord
  2
SW_CENTERMARKSYMBOL_17
340
0
102
{BLKREFS
331
186
102
}
  0
BLOCK_RECORD
  5
187
330
1
100
AcDbSymbolTableRecord
100
AcDbBlockTableRecord
  2
SW_CENTERMARKSYMBOL_18
340
0
102
{BLKREFS
331
192
102
}
  0
BLOCK_RECORD
  5
193
330
1
100
AcDbSymbolTableRecord
100
AcDbBlockTableRecord
  2
SW_CENTERMARKSYMBOL_19
340
0
102
{BLKREFS
331
19E
102
}
  0
BLOCK_RECORD
  5
19F
330
1
100
AcDbSymbolTableRecord
100
AcDbBlockTableRecord
  2
SW_CENTERMARKSYMBOL_20
340
0
102
{BLKREFS
331
1AA
102
}
  0
ENDTAB
  0
ENDSEC
  0
SECTION
  2
BLOCKS
  0
BLOCK
  5
20
330
1F
100
AcDbEntity
  8
0
100
AcDbBlockBegin
  2
*Model_Space
 70
     0
 10
0.0
 20
0.0
 30
0.0
  3
*Model_Space
  1

  0
ENDBLK
  5
21
330
1F
100
AcDbEntity
  8
0
100
AcDbBlockEnd
  0
BLOCK
  5
1C
330
1B
100
AcDbEntity
 67
     1
  8
0
100
AcDbBlockBegin
  2
*Paper_Space
 70
     0
 10
0.0
 20
0.0
 30
0.0
  3
*Paper_Space
  1

  0
ENDBLK
  5
1D
330
1B
100
AcDbEntity
 67
     1
  8
0
100
AcDbBlockEnd
  0
BLOCK
  5
24
330
23
100
AcDbEntity
  8
0
100
AcDbBlockBegin
  2
*Paper_Space0
 70
     0
 10
0.0
 20
0.0
 30
0.0
  3
*Paper_Space0
  1

  0
ENDBLK
  5
25
330
23
100
AcDbEntity
  8
0
100
AcDbBlockEnd
  0
BLOCK
  5
B0
330
AF
100
AcDbEntity
  8
0
100
AcDbBlockBegin
  2
SW_CENTERMARKSYMBOL_0
 70
     0
 10
0.0
 20
0.0
 30
0.0
  3
SW_CENTERMARKSYMBOL_0
  1

  0
LINE
  5
B2
330
AF
100
AcDbEntity
  8
FORMAT
 62
     0
100
AcDbLine
 10
0.0
 20
0.0
 30
0.0
 11
0.0
 21
2.5
 31
0.0
  0
LINE
  5
B3
330
AF
100
AcDbEntity
  8
FORMAT
 62
     0
100
AcDbLine
 10
0.0
 20
0.0
 30
0.0
 11
-2.5
 21
0.0
 31
0.0
  0
LINE
  5
B4
330
AF
100
AcDbEntity
  8
FORMAT
 62
     0
100
AcDbLine
 10
0.0
 20
0.0
 30
0.0
 11
0.0
 21
-2.5
 31
0.0
  0
LINE
  5
B5
330
AF
100
AcDbEntity
  8
FORMAT
 62
     0
100
AcDbLine
 10
0.0
 20
0.0
 30
0.0
 11
2.5
 21
0.0
 31
0.0
  0
LINE
  5
B6
330
AF
100
AcDbEntity
  8
FORMAT
 62
     0
100
AcDbLine
 10
0.0
 20
5.0
 30
0.0
 11
0.0
 21
402.0
 31
0.0
  0
LINE
  5
B7
330
AF
100
AcDbEntity
  8
FORMAT
 62
     0
100
AcDbLine
 10
-5.0
 20
0.0
 30
0.0
 11
-402.0
 21
0.0
 31
0.0
  0
LINE
  5
B8
330
AF
100
AcDbEntity
  8
FORMAT
 62
     0
100
AcDbLine
 10
0.0
 20
-5.0
 30
0.0
 11
0.0
 21
-402.0
 31
0.0
  0
LINE
  5
B9
330
AF
100
AcDbEntity
  8
FORMAT
 62
     0
100
AcDbLine
 10
5.0
 20
0.0
 30
0.0
 11
402.0
 21
0.0
 31
0.0
  0
ENDBLK
  5
B1
330
AF
100
AcDbEntity
  8
0
100
AcDbBlockEnd
  0
BLOCK
  5
BC
330
BB
100
AcDbEntity
  8
0
100
AcDbBlockBegin
  2
SW_CENTERMARKSYMBOL_1
 70
     0
 10
0.0
 20
0.0
 30
0.0
  3
SW_CENTERMARKSYMBOL_1
  1

  0
LINE
  5
BE
330
BB
100
AcDbEntity
  8
FORMAT
 62
     0
100
AcDbLine
 10
0.0
 20
0.0
 30
0.0
 11
0.0
 21
2.5
 31
0.0
  0
LINE
  5
BF
330
BB
100
AcDbEntity
  8
FORMAT
 62
     0
100
AcDbLine
 10
0.0
 20
0.0
 30
0.0
 11
-2.5
 21
0.0
 31
0.0
  0
LINE
  5
C0
330
BB
100
AcDbEntity
  8
FORMAT
 62
     0
100
AcDbLine
 10
0.0
 20
0.0
 30
0.0
 11
0.0
 21
-2.5
 31
0.0
  0
LINE
  5
C1
330
BB
100
AcDbEntity
  8
FORMAT
 62
     0
100
AcDbLine
 10
0.0
 20
0.0
 30
0.0
 11
2.5
 21
0.0
 31
0.0
  0
LINE
  5
C2
330
BB
100
AcDbEntity
  8
FORMAT
 62
     0
100
AcDbLine
 10
0.0
 20
5.0
 30
0.0
 11
0.0
 21
17.5
 31
0.0
  0
LINE
  5
C3
330
BB
100
AcDbEntity
  8
FORMAT
 62
     0
100
AcDbLine
 10
-5.0
 20
0.0
 30
0.0
 11
-17.5
 21
0.0
 31
0.0
  0
LINE
  5
C4
330
BB
100
AcDbEntity
  8
FORMAT
 62
     0
100
AcDbLine
 10
0.0
 20
-5.0
 30
0.0
 11
0.0
 21
-17.5
 31
0.0
  0
LINE
  5
C5
330
BB
100
AcDbEntity
  8
FORMAT
 62
     0
100
AcDbLine
 10
5.0
 20
0.0
 30
0.0
 11
17.5
 21
0.0
 31
0.0
  0
ENDBLK
  5
BD
330
BB
100
AcDbEntity
  8
0
100
AcDbBlockEnd
  0
BLOCK
  5
C8
330
C7
100
AcDbEntity
  8
0
100
AcDbBlockBegin
  2
SW_CENTERMARKSYMBOL_2
 70
     0
 10
0.0
 20
0.0
 30
0.0
  3
SW_CENTERMARKSYMBOL_2
  1

  0
LINE
  5
CA
330
C7
100
AcDbEntity
  8
FORMAT
 62
     0
100
AcDbLine
 10
0.0
 20
0.0
 30
0.0
 11
0.0
 21
2.5
 31
0.0
  0
LINE
  5
CB
330
C7
100
AcDbEntity
  8
FORMAT
 62
     0
100
AcDbLine
 10
0.0
 20
0.0
 30
0.0
 11
-2.5
 21
0.0
 31
0.0
  0
LINE
  5
CC
330
C7
100
AcDbEntity
  8
FORMAT
 62
     0
100
AcDbLine
 10
0.0
 20
0.0
 30
0.0
 11
0.0
 21
-2.5
 31
0.0
  0
LINE
  5
CD
330
C7
100
AcDbEntity
  8
FORMAT
 62
     0
100
AcDbLine
 10
0.0
 20
0.0
 30
0.0
 11
2.5
 21
0.0
 31
0.0
  0
LINE
  5
CE
330
C7
100
AcDbEntity
  8
FORMAT
 62
     0
100
AcDbLine
 10
0.0
 20
5.0
 30
0.0
 11
0.0
 21
17.5
 31
0.0
  0
LINE
  5
CF
330
C7
100
AcDbEntity
  8
FORMAT
 62
     0
100
AcDbLine
 10
-5.0
 20
0.0
 30
0.0
 11
-17.5
 21
0.0
 31
0.0
  0
LINE
  5
D0
330
C7
100
AcDbEntity
  8
FORMAT
 62
     0
100
AcDbLine
 10
0.0
 20
-5.0
 30
0.0
 11
0.0
 21
-17.5
 31
0.0
  0
LINE
  5
D1
330
C7
100
AcDbEntity
  8
FORMAT
 62
     0
100
AcDbLine
 10
5.0
 20
0.0
 30
0.0
 11
17.5
 21
0.0
 31
0.0
  0
ENDBLK
  5
C9
330
C7
100
AcDbEntity
  8
0
100
AcDbBlockEnd
  0
BLOCK
  5
D4
330
D3
100
AcDbEntity
  8
0
100
AcDbBlockBegin
  2
SW_CENTERMARKSYMBOL_3
 70
     0
 10
0.0
 20
0.0
 30
0.0
  3
SW_CENTERMARKSYMBOL_3
  1

  0
LINE
  5
D6
330
D3
100
AcDbEntity
  8
FORMAT
 62
     0
100
AcDbLine
 10
0.0
 20
0.0
 30
0.0
 11
0.0
 21
2.5
 31
0.0
  0
LINE
  5
D7
330
D3
100
AcDbEntity
  8
FORMAT
 62
     0
100
AcDbLine
 10
0.0
 20
0.0
 30
0.0
 11
-2.5
 21
0.0
 31
0.0
  0
LINE
  5
D8
330
D3
100
AcDbEntity
  8
FORMAT
 62
     0
100
AcDbLine
 10
0.0
 20
0.0
 30
0.0
 11
0.0
 21
-2.5
 31
0.0
  0
LINE
  5
D9
330
D3
100
AcDbEntity
  8
FORMAT
 62
     0
100
AcDbLine
 10
0.0
 20
0.0
 30
0.0
 11
2.5
 21
0.0
 31
0.0
  0
LINE
  5
DA
330
D3
100
AcDbEntity
  8
FORMAT
 62
     0
100
AcDbLine
 10
0.0
 20
5.0
 30
0.0
 11
0.0
 21
17.5
 31
0.0
  0
LINE
  5
DB
330
D3
100
AcDbEntity
  8
FORMAT
 62
     0
100
AcDbLine
 10
-5.0
 20
0.0
 30
0.0
 11
-17.5
 21
0.0
 31
0.0
  0
LINE
  5
DC
330
D3
100
AcDbEntity
  8
FORMAT
 62
     0
100
AcDbLine
 10
0.0
 20
-5.0
 30
0.0
 11
0.0
 21
-17.5
 31
0.0
  0
LINE
  5
DD
330
D3
100
AcDbEntity
  8
FORMAT
 62
     0
100
AcDbLine
 10
5.0
 20
0.0
 30
0.0
 11
17.5
 21
0.0
 31
0.0
  0
ENDBLK
  5
D5
330
D3
100
AcDbEntity
  8
0
100
AcDbBlockEnd
  0
BLOCK
  5
E0
330
DF
100
AcDbEntity
  8
0
100
AcDbBlockBegin
  2
SW_CENTERMARKSYMBOL_4
 70
     0
 10
0.0
 20
0.0
 30
0.0
  3
SW_CENTERMARKSYMBOL_4
  1

  0
LINE
  5
E2
330
DF
100
AcDbEntity
  8
FORMAT
 62
     0
100
AcDbLine
 10
0.0
 20
0.0
 30
0.0
 11
0.0
 21
2.5
 31
0.0
  0
LINE
  5
E3
330
DF
100
AcDbEntity
  8
FORMAT
 62
     0
100
AcDbLine
 10
0.0
 20
0.0
 30
0.0
 11
-2.5
 21
0.0
 31
0.0
  0
LINE
  5
E4
330
DF
100
AcDbEntity
  8
FORMAT
 62
     0
100
AcDbLine
 10
0.0
 20
0.0
 30
0.0
 11
0.0
 21
-2.5
 31
0.0
  0
LINE
  5
E5
330
DF
100
AcDbEntity
  8
FORMAT
 62
     0
100
AcDbLine
 10
0.0
 20
0.0
 30
0.0
 11
2.5
 21
0.0
 31
0.0
  0
LINE
  5
E6
330
DF
100
AcDbEntity
  8
FORMAT
 62
     0
100
AcDbLine
 10
0.0
 20
5.0
 30
0.0
 11
0.0
 21
17.5
 31
0.0
  0
LINE
  5
E7
330
DF
100
AcDbEntity
  8
FORMAT
 62
     0
100
AcDbLine
 10
-5.0
 20
0.0
 30
0.0
 11
-17.5
 21
0.0
 31
0.0
  0
LINE
  5
E8
330
DF
100
AcDbEntity
  8
FORMAT
 62
     0
100
AcDbLine
 10
0.0
 20
-5.0
 30
0.0
 11
0.0
 21
-17.5
 31
0.0
  0
LINE
  5
E9
330
DF
100
AcDbEntity
  8
FORMAT
 62
     0
100
AcDbLine
 10
5.0
 20
0.0
 30
0.0
 11
17.5
 21
0.0
 31
0.0
  0
ENDBLK
  5
E1
330
DF
100
AcDbEntity
  8
0
100
AcDbBlockEnd
  0
BLOCK
  5
EC
330
EB
100
AcDbEntity
  8
0
100
AcDbBlockBegin
  2
SW_CENTERMARKSYMBOL_5
 70
     0
 10
0.0
 20
0.0
 30
0.0
  3
SW_CENTERMARKSYMBOL_5
  1

  0
LINE
  5
EE
330
EB
100
AcDbEntity
  8
FORMAT
 62
     0
100
AcDbLine
 10
0.0
 20
0.0
 30
0.0
 11
0.0
 21
2.5
 31
0.0
  0
LINE
  5
EF
330
EB
100
AcDbEntity
  8
FORMAT
 62
     0
100
AcDbLine
 10
0.0
 20
0.0
 30
0.0
 11
-2.5
 21
0.0
 31
0.0
  0
LINE
  5
F0
330
EB
100
AcDbEntity
  8
FORMAT
 62
     0
100
AcDbLine
 10
0.0
 20
0.0
 30
0.0
 11
0.0
 21
-2.5
 31
0.0
  0
LINE
  5
F1
330
EB
100
AcDbEntity
  8
FORMAT
 62
     0
100
AcDbLine
 10
0.0
 20
0.0
 30
0.0
 11
2.5
 21
0.0
 31
0.0
  0
LINE
  5
F2
330
EB
100
AcDbEntity
  8
FORMAT
 62
     0
100
AcDbLine
 10
0.0
 20
5.0
 30
0.0
 11
0.0
 21
18.5
 31
0.0
  0
LINE
  5
F3
330
EB
100
AcDbEntity
  8
FORMAT
 62
     0
100
AcDbLine
 10
-5.0
 20
0.0
 30
0.0
 11
-18.5
 21
0.0
 31
0.0
  0
LINE
  5
F4
330
EB
100
AcDbEntity
  8
FORMAT
 62
     0
100
AcDbLine
 10
0.0
 20
-5.0
 30
0.0
 11
0.0
 21
-18.5
 31
0.0
  0
LINE
  5
F5
330
EB
100
AcDbEntity
  8
FORMAT
 62
     0
100
AcDbLine
 10
5.0
 20
0.0
 30
0.0
 11
18.5
 21
0.0
 31
0.0
  0
ENDBLK
  5
ED
330
EB
100
AcDbEntity
  8
0
100
AcDbBlockEnd
  0
BLOCK
  5
F8
330
F7
100
AcDbEntity
  8
0
100
AcDbBlockBegin
  2
SW_CENTERMARKSYMBOL_6
 70
     0
 10
0.0
 20
0.0
 30
0.0
  3
SW_CENTERMARKSYMBOL_6
  1

  0
LINE
  5
FA
330
F7
100
AcDbEntity
  8
FORMAT
 62
     0
100
AcDbLine
 10
0.0
 20
0.0
 30
0.0
 11
0.0
 21
2.5
 31
0.0
  0
LINE
  5
FB
330
F7
100
AcDbEntity
  8
FORMAT
 62
     0
100
AcDbLine
 10
0.0
 20
0.0
 30
0.0
 11
-2.5
 21
0.0
 31
0.0
  0
LINE
  5
FC
330
F7
100
AcDbEntity
  8
FORMAT
 62
     0
100
AcDbLine
 10
0.0
 20
0.0
 30
0.0
 11
0.0
 21
-2.5
 31
0.0
  0
LINE
  5
FD
330
F7
100
AcDbEntity
  8
FORMAT
 62
     0
100
AcDbLine
 10
0.0
 20
0.0
 30
0.0
 11
2.5
 21
0.0
 31
0.0
  0
LINE
  5
FE
330
F7
100
AcDbEntity
  8
FORMAT
 62
     0
100
AcDbLine
 10
0.0
 20
5.0
 30
0.0
 11
0.0
 21
18.5
 31
0.0
  0
LINE
  5
FF
330
F7
100
AcDbEntity
  8
FORMAT
 62
     0
100
AcDbLine
 10
-5.0
 20
0.0
 30
0.0
 11
-18.5
 21
0.0
 31
0.0
  0
LINE
  5
100
330
F7
100
AcDbEntity
  8
FORMAT
 62
     0
100
AcDbLine
 10
0.0
 20
-5.0
 30
0.0
 11
0.0
 21
-18.5
 31
0.0
  0
LINE
  5
101
330
F7
100
AcDbEntity
  8
FORMAT
 62
     0
100
AcDbLine
 10
5.0
 20
0.0
 30
0.0
 11
18.5
 21
0.0
 31
0.0
  0
ENDBLK
  5
F9
330
F7
100
AcDbEntity
  8
0
100
AcDbBlockEnd
  0
BLOCK
  5
104
330
103
100
AcDbEntity
  8
0
100
AcDbBlockBegin
  2
SW_CENTERMARKSYMBOL_7
 70
     0
 10
0.0
 20
0.0
 30
0.0
  3
SW_CENTERMARKSYMBOL_7
  1

  0
LINE
  5
106
330
103
100
AcDbEntity
  8
FORMAT
 62
     0
100
AcDbLine
 10
0.0
 20
0.0
 30
0.0
 11
0.0
 21
2.5
 31
0.0
  0
LINE
  5
107
330
103
100
AcDbEntity
  8
FORMAT
 62
     0
100
AcDbLine
 10
0.0
 20
0.0
 30
0.0
 11
-2.5
 21
0.0
 31
0.0
  0
LINE
  5
108
330
103
100
AcDbEntity
  8
FORMAT
 62
     0
100
AcDbLine
 10
0.0
 20
0.0
 30
0.0
 11
0.0
 21
-2.5
 31
0.0
  0
LINE
  5
109
330
103
100
AcDbEntity
  8
FORMAT
 62
     0
100
AcDbLine
 10
0.0
 20
0.0
 30
0.0
 11
2.5
 21
0.0
 31
0.0
  0
LINE
  5
10A
330
103
100
AcDbEntity
  8
FORMAT
 62
     0
100
AcDbLine
 10
0.0
 20
5.0
 30
0.0
 11
0.0
 21
18.5
 31
0.0
  0
LINE
  5
10B
330
103
100
AcDbEntity
  8
FORMAT
 62
     0
100
AcDbLine
 10
-5.0
 20
0.0
 30
0.0
 11
-18.5
 21
0.0
 31
0.0
  0
LINE
  5
10C
330
103
100
AcDbEntity
  8
FORMAT
 62
     0
100
AcDbLine
 10
0.0
 20
-5.0
 30
0.0
 11
0.0
 21
-18.5
 31
0.0
  0
LINE
  5
10D
330
103
100
AcDbEntity
  8
FORMAT
 62
     0
100
AcDbLine
 10
5.0
 20
0.0
 30
0.0
 11
18.5
 21
0.0
 31
0.0
  0
ENDBLK
  5
105
330
103
100
AcDbEntity
  8
0
100
AcDbBlockEnd
  0
BLOCK
  5
110
330
10F
100
AcDbEntity
  8
0
100
AcDbBlockBegin
  2
SW_CENTERMARKSYMBOL_8
 70
     0
 10
0.0
 20
0.0
 30
0.0
  3
SW_CENTERMARKSYMBOL_8
  1

  0
LINE
  5
112
330
10F
100
AcDbEntity
  8
FORMAT
 62
     0
100
AcDbLine
 10
0.0
 20
0.0
 30
0.0
 11
0.0
 21
2.5
 31
0.0
  0
LINE
  5
113
330
10F
100
AcDbEntity
  8
FORMAT
 62
     0
100
AcDbLine
 10
0.0
 20
0.0
 30
0.0
 11
-2.5
 21
0.0
 31
0.0
  0
LINE
  5
114
330
10F
100
AcDbEntity
  8
FORMAT
 62
     0
100
AcDbLine
 10
0.0
 20
0.0
 30
0.0
 11
0.0
 21
-2.5
 31
0.0
  0
LINE
  5
115
330
10F
100
AcDbEntity
  8
FORMAT
 62
     0
100
AcDbLine
 10
0.0
 20
0.0
 30
0.0
 11
2.5
 21
0.0
 31
0.0
  0
LINE
  5
116
330
10F
100
AcDbEntity
  8
FORMAT
 62
     0
100
AcDbLine
 10
0.0
 20
5.0
 30
0.0
 11
0.0
 21
18.5
 31
0.0
  0
LINE
  5
117
330
10F
100
AcDbEntity
  8
FORMAT
 62
     0
100
AcDbLine
 10
-5.0
 20
0.0
 30
0.0
 11
-18.5
 21
0.0
 31
0.0
  0
LINE
  5
118
330
10F
100
AcDbEntity
  8
FORMAT
 62
     0
100
AcDbLine
 10
0.0
 20
-5.0
 30
0.0
 11
0.0
 21
-18.5
 31
0.0
  0
LINE
  5
119
330
10F
100
AcDbEntity
  8
FORMAT
 62
     0
100
AcDbLine
 10
5.0
 20
0.0
 30
0.0
 11
18.5
 21
0.0
 31
0.0
  0
ENDBLK
  5
111
330
10F
100
AcDbEntity
  8
0
100
AcDbBlockEnd
  0
BLOCK
  5
11C
330
11B
100
AcDbEntity
  8
0
100
AcDbBlockBegin
  2
SW_CENTERMARKSYMBOL_9
 70
     0
 10
0.0
 20
0.0
 30
0.0
  3
SW_CENTERMARKSYMBOL_9
  1

  0
LINE
  5
11E
330
11B
100
AcDbEntity
  8
FORMAT
 62
     0
100
AcDbLine
 10
0.0
 20
0.0
 30
0.0
 11
0.0
 21
2.5
 31
0.0
  0
LINE
  5
11F
330
11B
100
AcDbEntity
  8
FORMAT
 62
     0
100
AcDbLine
 10
0.0
 20
0.0
 30
0.0
 11
-2.5
 21
0.0
 31
0.0
  0
LINE
  5
120
330
11B
100
AcDbEntity
  8
FORMAT
 62
     0
100
AcDbLine
 10
0.0
 20
0.0
 30
0.0
 11
0.0
 21
-2.5
 31
0.0
  0
LINE
  5
121
330
11B
100
AcDbEntity
  8
FORMAT
 62
     0
100
AcDbLine
 10
0.0
 20
0.0
 30
0.0
 11
2.5
 21
0.0
 31
0.0
  0
LINE
  5
122
330
11B
100
AcDbEntity
  8
FORMAT
 62
     0
100
AcDbLine
 10
0.0
 20
5.0
 30
0.0
 11
0.0
 21
18.5
 31
0.0
  0
LINE
  5
123
330
11B
100
AcDbEntity
  8
FORMAT
 62
     0
100
AcDbLine
 10
-5.0
 20
0.0
 30
0.0
 11
-18.5
 21
0.0
 31
0.0
  0
LINE
  5
124
330
11B
100
AcDbEntity
  8
FORMAT
 62
     0
100
AcDbLine
 10
0.0
 20
-5.0
 30
0.0
 11
0.0
 21
-18.5
 31
0.0
  0
LINE
  5
125
330
11B
100
AcDbEntity
  8
FORMAT
 62
     0
100
AcDbLine
 10
5.0
 20
0.0
 30
0.0
 11
18.5
 21
0.0
 31
0.0
  0
ENDBLK
  5
11D
330
11B
100
AcDbEntity
  8
0
100
AcDbBlockEnd
  0
BLOCK
  5
128
330
127
100
AcDbEntity
  8
0
100
AcDbBlockBegin
  2
SW_CENTERMARKSYMBOL_10
 70
     0
 10
0.0
 20
0.0
 30
0.0
  3
SW_CENTERMARKSYMBOL_10
  1

  0
LINE
  5
12A
330
127
100
AcDbEntity
  8
FORMAT
 62
     0
100
AcDbLine
 10
0.0
 20
0.0
 30
0.0
 11
0.0
 21
2.5
 31
0.0
  0
LINE
  5
12B
330
127
100
AcDbEntity
  8
FORMAT
 62
     0
100
AcDbLine
 10
0.0
 20
0.0
 30
0.0
 11
-2.5
 21
0.0
 31
0.0
  0
LINE
  5
12C
330
127
100
AcDbEntity
  8
FORMAT
 62
     0
100
AcDbLine
 10
0.0
 20
0.0
 30
0.0
 11
0.0
 21
-2.5
 31
0.0
  0
LINE
  5
12D
330
127
100
AcDbEntity
  8
FORMAT
 62
     0
100
AcDbLine
 10
0.0
 20
0.0
 30
0.0
 11
2.5
 21
0.0
 31
0.0
  0
LINE
  5
12E
330
127
100
AcDbEntity
  8
FORMAT
 62
     0
100
AcDbLine
 10
0.0
 20
5.0
 30
0.0
 11
0.0
 21
18.5
 31
0.0
  0
LINE
  5
12F
330
127
100
AcDbEntity
  8
FORMAT
 62
     0
100
AcDbLine
 10
-5.0
 20
0.0
 30
0.0
 11
-18.5
 21
0.0
 31
0.0
  0
LINE
  5
130
330
127
100
AcDbEntity
  8
FORMAT
 62
     0
100
AcDbLine
 10
0.0
 20
-5.0
 30
0.0
 11
0.0
 21
-18.5
 31
0.0
  0
LINE
  5
131
330
127
100
AcDbEntity
  8
FORMAT
 62
     0
100
AcDbLine
 10
5.0
 20
0.0
 30
0.0
 11
18.5
 21
0.0
 31
0.0
  0
ENDBLK
  5
129
330
127
100
AcDbEntity
  8
0
100
AcDbBlockEnd
  0
BLOCK
  5
134
330
133
100
AcDbEntity
  8
0
100
AcDbBlockBegin
  2
SW_CENTERMARKSYMBOL_11
 70
     0
 10
0.0
 20
0.0
 30
0.0
  3
SW_CENTERMARKSYMBOL_11
  1

  0
LINE
  5
136
330
133
100
AcDbEntity
  8
FORMAT
 62
     0
100
AcDbLine
 10
0.0
 20
0.0
 30
0.0
 11
0.0
 21
2.5
 31
0.0
  0
LINE
  5
137
330
133
100
AcDbEntity
  8
FORMAT
 62
     0
100
AcDbLine
 10
0.0
 20
0.0
 30
0.0
 11
-2.5
 21
0.0
 31
0.0
  0
LINE
  5
138
330
133
100
AcDbEntity
  8
FORMAT
 62
     0
100
AcDbLine
 10
0.0
 20
0.0
 30
0.0
 11
0.0
 21
-2.5
 31
0.0
  0
LINE
  5
139
330
133
100
AcDbEntity
  8
FORMAT
 62
     0
100
AcDbLine
 10
0.0
 20
0.0
 30
0.0
 11
2.5
 21
0.0
 31
0.0
  0
LINE
  5
13A
330
133
100
AcDbEntity
  8
FORMAT
 62
     0
100
AcDbLine
 10
0.0
 20
5.0
 30
0.0
 11
0.0
 21
18.5
 31
0.0
  0
LINE
  5
13B
330
133
100
AcDbEntity
  8
FORMAT
 62
     0
100
AcDbLine
 10
-5.0
 20
0.0
 30
0.0
 11
-18.5
 21
0.0
 31
0.0
  0
LINE
  5
13C
330
133
100
AcDbEntity
  8
FORMAT
 62
     0
100
AcDbLine
 10
0.0
 20
-5.0
 30
0.0
 11
0.0
 21
-18.5
 31
0.0
  0
LINE
  5
13D
330
133
100
AcDbEntity
  8
FORMAT
 62
     0
100
AcDbLine
 10
5.0
 20
0.0
 30
0.0
 11
18.5
 21
0.0
 31
0.0
  0
ENDBLK
  5
135
330
133
100
AcDbEntity
  8
0
100
AcDbBlockEnd
  0
BLOCK
  5
140
330
13F
100
AcDbEntity
  8
0
100
AcDbBlockBegin
  2
SW_CENTERMARKSYMBOL_12
 70
     0
 10
0.0
 20
0.0
 30
0.0
  3
SW_CENTERMARKSYMBOL_12
  1

  0
LINE
  5
142
330
13F
100
AcDbEntity
  8
FORMAT
 62
     0
100
AcDbLine
 10
0.0
 20
0.0
 30
0.0
 11
0.0
 21
2.5
 31
0.0
  0
LINE
  5
143
330
13F
100
AcDbEntity
  8
FORMAT
 62
     0
100
AcDbLine
 10
0.0
 20
0.0
 30
0.0
 11
-2.5
 21
0.0
 31
0.0
  0
LINE
  5
144
330
13F
100
AcDbEntity
  8
FORMAT
 62
     0
100
AcDbLine
 10
0.0
 20
0.0
 30
0.0
 11
0.0
 21
-2.5
 31
0.0
  0
LINE
  5
145
330
13F
100
AcDbEntity
  8
FORMAT
 62
     0
100
AcDbLine
 10
0.0
 20
0.0
 30
0.0
 11
2.5
 21
0.0
 31
0.0
  0
LINE
  5
146
330
13F
100
AcDbEntity
  8
FORMAT
 62
     0
100
AcDbLine
 10
0.0
 20
5.0
 30
0.0
 11
0.0
 21
18.5
 31
0.0
  0
LINE
  5
147
330
13F
100
AcDbEntity
  8
FORMAT
 62
     0
100
AcDbLine
 10
-5.0
 20
0.0
 30
0.0
 11
-18.5
 21
0.0
 31
0.0
  0
LINE
  5
148
330
13F
100
AcDbEntity
  8
FORMAT
 62
     0
100
AcDbLine
 10
0.0
 20
-5.0
 30
0.0
 11
0.0
 21
-18.5
 31
0.0
  0
LINE
  5
149
330
13F
100
AcDbEntity
  8
FORMAT
 62
     0
100
AcDbLine
 10
5.0
 20
0.0
 30
0.0
 11
18.5
 21
0.0
 31
0.0
  0
ENDBLK
  5
141
330
13F
100
AcDbEntity
  8
0
100
AcDbBlockEnd
  0
BLOCK
  5
14C
330
14B
100
AcDbEntity
  8
0
100
AcDbBlockBegin
  2
SW_CENTERMARKSYMBOL_13
 70
     0
 10
0.0
 20
0.0
 30
0.0
  3
SW_CENTERMARKSYMBOL_13
  1

  0
LINE
  5
14E
330
14B
100
AcDbEntity
  8
FORMAT
 62
     0
100
AcDbLine
 10
0.0
 20
0.0
 30
0.0
 11
0.0
 21
2.5
 31
0.0
  0
LINE
  5
14F
330
14B
100
AcDbEntity
  8
FORMAT
 62
     0
100
AcDbLine
 10
0.0
 20
0.0
 30
0.0
 11
-2.5
 21
0.0
 31
0.0
  0
LINE
  5
150
330
14B
100
AcDbEntity
  8
FORMAT
 62
     0
100
AcDbLine
 10
0.0
 20
0.0
 30
0.0
 11
0.0
 21
-2.5
 31
0.0
  0
LINE
  5
151
330
14B
100
AcDbEntity
  8
FORMAT
 62
     0
100
AcDbLine
 10
0.0
 20
0.0
 30
0.0
 11
2.5
 21
0.0
 31
0.0
  0
LINE
  5
152
330
14B
100
AcDbEntity
  8
FORMAT
 62
     0
100
AcDbLine
 10
0.0
 20
5.0
 30
0.0
 11
0.0
 21
18.5
 31
0.0
  0
LINE
  5
153
330
14B
100
AcDbEntity
  8
FORMAT
 62
     0
100
AcDbLine
 10
-5.0
 20
0.0
 30
0.0
 11
-18.5
 21
0.0
 31
0.0
  0
LINE
  5
154
330
14B
100
AcDbEntity
  8
FORMAT
 62
     0
100
AcDbLine
 10
0.0
 20
-5.0
 30
0.0
 11
0.0
 21
-18.5
 31
0.0
  0
LINE
  5
155
330
14B
100
AcDbEntity
  8
FORMAT
 62
     0
100
AcDbLine
 10
5.0
 20
0.0
 30
0.0
 11
18.5
 21
0.0
 31
0.0
  0
ENDBLK
  5
14D
330
14B
100
AcDbEntity
  8
0
100
AcDbBlockEnd
  0
BLOCK
  5
158
330
157
100
AcDbEntity
  8
0
100
AcDbBlockBegin
  2
SW_CENTERMARKSYMBOL_14
 70
     0
 10
0.0
 20
0.0
 30
0.0
  3
SW_CENTERMARKSYMBOL_14
  1

  0
LINE
  5
15A
330
157
100
AcDbEntity
  8
FORMAT
 62
     0
100
AcDbLine
 10
0.0
 20
0.0
 30
0.0
 11
0.0
 21
2.5
 31
0.0
  0
LINE
  5
15B
330
157
100
AcDbEntity
  8
FORMAT
 62
     0
100
AcDbLine
 10
0.0
 20
0.0
 30
0.0
 11
-2.5
 21
0.0
 31
0.0
  0
LINE
  5
15C
330
157
100
AcDbEntity
  8
FORMAT
 62
     0
100
AcDbLine
 10
0.0
 20
0.0
 30
0.0
 11
0.0
 21
-2.5
 31
0.0
  0
LINE
  5
15D
330
157
100
AcDbEntity
  8
FORMAT
 62
     0
100
AcDbLine
 10
0.0
 20
0.0
 30
0.0
 11
2.5
 21
0.0
 31
0.0
  0
LINE
  5
15E
330
157
100
AcDbEntity
  8
FORMAT
 62
     0
100
AcDbLine
 10
0.0
 20
5.0
 30
0.0
 11
0.0
 21
18.5
 31
0.0
  0
LINE
  5
15F
330
157
100
AcDbEntity
  8
FORMAT
 62
     0
100
AcDbLine
 10
-5.0
 20
0.0
 30
0.0
 11
-18.5
 21
0.0
 31
0.0
  0
LINE
  5
160
330
157
100
AcDbEntity
  8
FORMAT
 62
     0
100
AcDbLine
 10
0.0
 20
-5.0
 30
0.0
 11
0.0
 21
-18.5
 31
0.0
  0
LINE
  5
161
330
157
100
AcDbEntity
  8
FORMAT
 62
     0
100
AcDbLine
 10
5.0
 20
0.0
 30
0.0
 11
18.5
 21
0.0
 31
0.0
  0
ENDBLK
  5
159
330
157
100
AcDbEntity
  8
0
100
AcDbBlockEnd
  0
BLOCK
  5
164
330
163
100
AcDbEntity
  8
0
100
AcDbBlockBegin
  2
SW_CENTERMARKSYMBOL_15
 70
     0
 10
0.0
 20
0.0
 30
0.0
  3
SW_CENTERMARKSYMBOL_15
  1

  0
LINE
  5
166
330
163
100
AcDbEntity
  8
FORMAT
 62
     0
100
AcDbLine
 10
0.0
 20
0.0
 30
0.0
 11
0.0
 21
2.5
 31
0.0
  0
LINE
  5
167
330
163
100
AcDbEntity
  8
FORMAT
 62
     0
100
AcDbLine
 10
0.0
 20
0.0
 30
0.0
 11
-2.5
 21
0.0
 31
0.0
  0
LINE
  5
168
330
163
100
AcDbEntity
  8
FORMAT
 62
     0
100
AcDbLine
 10
0.0
 20
0.0
 30
0.0
 11
0.0
 21
-2.5
 31
0.0
  0
LINE
  5
169
330
163
100
AcDbEntity
  8
FORMAT
 62
     0
100
AcDbLine
 10
0.0
 20
0.0
 30
0.0
 11
2.5
 21
0.0
 31
0.0
  0
LINE
  5
16A
330
163
100
AcDbEntity
  8
FORMAT
 62
     0
100
AcDbLine
 10
0.0
 20
5.0
 30
0.0
 11
0.0
 21
18.5
 31
0.0
  0
LINE
  5
16B
330
163
100
AcDbEntity
  8
FORMAT
 62
     0
100
AcDbLine
 10
-5.0
 20
0.0
 30
0.0
 11
-18.5
 21
0.0
 31
0.0
  0
LINE
  5
16C
330
163
100
AcDbEntity
  8
FORMAT
 62
     0
100
AcDbLine
 10
0.0
 20
-5.0
 30
0.0
 11
0.0
 21
-18.5
 31
0.0
  0
LINE
  5
16D
330
163
100
AcDbEntity
  8
FORMAT
 62
     0
100
AcDbLine
 10
5.0
 20
0.0
 30
0.0
 11
18.5
 21
0.0
 31
0.0
  0
ENDBLK
  5
165
330
163
100
AcDbEntity
  8
0
100
AcDbBlockEnd
  0
BLOCK
  5
170
330
16F
100
AcDbEntity
  8
0
100
AcDbBlockBegin
  2
SW_CENTERMARKSYMBOL_16
 70
     0
 10
0.0
 20
0.0
 30
0.0
  3
SW_CENTERMARKSYMBOL_16
  1

  0
LINE
  5
172
330
16F
100
AcDbEntity
  8
FORMAT
 62
     0
100
AcDbLine
 10
0.0
 20
0.0
 30
0.0
 11
0.0
 21
2.5
 31
0.0
  0
LINE
  5
173
330
16F
100
AcDbEntity
  8
FORMAT
 62
     0
100
AcDbLine
 10
0.0
 20
0.0
 30
0.0
 11
-2.5
 21
0.0
 31
0.0
  0
LINE
  5
174
330
16F
100
AcDbEntity
  8
FORMAT
 62
     0
100
AcDbLine
 10
0.0
 20
0.0
 30
0.0
 11
0.0
 21
-2.5
 31
0.0
  0
LINE
  5
175
330
16F
100
AcDbEntity
  8
FORMAT
 62
     0
100
AcDbLine
 10
0.0
 20
0.0
 30
0.0
 11
2.5
 21
0.0
 31
0.0
  0
LINE
  5
176
330
16F
100
AcDbEntity
  8
FORMAT
 62
     0
100
AcDbLine
 10
0.0
 20
5.0
 30
0.0
 11
0.0
 21
18.5
 31
0.0
  0
LINE
  5
177
330
16F
100
AcDbEntity
  8
FORMAT
 62
     0
100
AcDbLine
 10
-5.0
 20
0.0
 30
0.0
 11
-18.5
 21
0.0
 31
0.0
  0
LINE
  5
178
330
16F
100
AcDbEntity
  8
FORMAT
 62
     0
100
AcDbLine
 10
0.0
 20
-5.0
 30
0.0
 11
0.0
 21
-18.5
 31
0.0
  0
LINE
  5
179
330
16F
100
AcDbEntity
  8
FORMAT
 62
     0
100
AcDbLine
 10
5.0
 20
0.0
 30
0.0
 11
18.5
 21
0.0
 31
0.0
  0
ENDBLK
  5
171
330
16F
100
AcDbEntity
  8
0
100
AcDbBlockEnd
  0
BLOCK
  5
17C
330
17B
100
AcDbEntity
  8
0
100
AcDbBlockBegin
  2
SW_CENTERMARKSYMBOL_17
 70
     0
 10
0.0
 20
0.0
 30
0.0
  3
SW_CENTERMARKSYMBOL_17
  1

  0
LINE
  5
17E
330
17B
100
AcDbEntity
  8
FORMAT
 62
     0
100
AcDbLine
 10
0.0
 20
0.0
 30
0.0
 11
0.0
 21
2.5
 31
0.0
  0
LINE
  5
17F
330
17B
100
AcDbEntity
  8
FORMAT
 62
     0
100
AcDbLine
 10
0.0
 20
0.0
 30
0.0
 11
-2.5
 21
0.0
 31
0.0
  0
LINE
  5
180
330
17B
100
AcDbEntity
  8
FORMAT
 62
     0
100
AcDbLine
 10
0.0
 20
0.0
 30
0.0
 11
0.0
 21
-2.5
 31
0.0
  0
LINE
  5
181
330
17B
100
AcDbEntity
  8
FORMAT
 62
     0
100
AcDbLine
 10
0.0
 20
0.0
 30
0.0
 11
2.5
 21
0.0
 31
0.0
  0
LINE
  5
182
330
17B
100
AcDbEntity
  8
FORMAT
 62
     0
100
AcDbLine
 10
0.0
 20
5.0
 30
0.0
 11
0.0
 21
18.5
 31
0.0
  0
LINE
  5
183
330
17B
100
AcDbEntity
  8
FORMAT
 62
     0
100
AcDbLine
 10
-5.0
 20
0.0
 30
0.0
 11
-18.5
 21
0.0
 31
0.0
  0
LINE
  5
184
330
17B
100
AcDbEntity
  8
FORMAT
 62
     0
100
AcDbLine
 10
0.0
 20
-5.0
 30
0.0
 11
0.0
 21
-18.5
 31
0.0
  0
LINE
  5
185
330
17B
100
AcDbEntity
  8
FORMAT
 62
     0
100
AcDbLine
 10
5.0
 20
0.0
 30
0.0
 11
18.5
 21
0.0
 31
0.0
  0
ENDBLK
  5
17D
330
17B
100
AcDbEntity
  8
0
100
AcDbBlockEnd
  0
BLOCK
  5
188
330
187
100
AcDbEntity
  8
0
100
AcDbBlockBegin
  2
SW_CENTERMARKSYMBOL_18
 70
     0
 10
0.0
 20
0.0
 30
0.0
  3
SW_CENTERMARKSYMBOL_18
  1

  0
LINE
  5
18A
330
187
100
AcDbEntity
  8
FORMAT
 62
     0
100
AcDbLine
 10
0.0
 20
0.0
 30
0.0
 11
0.0
 21
2.5
 31
0.0
  0
LINE
  5
18B
330
187
100
AcDbEntity
  8
FORMAT
 62
     0
100
AcDbLine
 10
0.0
 20
0.0
 30
0.0
 11
-2.5
 21
0.0
 31
0.0
  0
LINE
  5
18C
330
187
100
AcDbEntity
  8
FORMAT
 62
     0
100
AcDbLine
 10
0.0
 20
0.0
 30
0.0
 11
0.0
 21
-2.5
 31
0.0
  0
LINE
  5
18D
330
187
100
AcDbEntity
  8
FORMAT
 62
     0
100
AcDbLine
 10
0.0
 20
0.0
 30
0.0
 11
2.5
 21
0.0
 31
0.0
  0
LINE
  5
18E
330
187
100
AcDbEntity
  8
FORMAT
 62
     0
100
AcDbLine
 10
0.0
 20
5.0
 30
0.0
 11
0.0
 21
18.5
 31
0.0
  0
LINE
  5
18F
330
187
100
AcDbEntity
  8
FORMAT
 62
     0
100
AcDbLine
 10
-5.0
 20
0.0
 30
0.0
 11
-18.5
 21
0.0
 31
0.0
  0
LINE
  5
190
330
187
100
AcDbEntity
  8
FORMAT
 62
     0
100
AcDbLine
 10
0.0
 20
-5.0
 30
0.0
 11
0.0
 21
-18.5
 31
0.0
  0
LINE
  5
191
330
187
100
AcDbEntity
  8
FORMAT
 62
     0
100
AcDbLine
 10
5.0
 20
0.0
 30
0.0
 11
18.5
 21
0.0
 31
0.0
  0
ENDBLK
  5
189
330
187
100
AcDbEntity
  8
0
100
AcDbBlockEnd
  0
BLOCK
  5
194
330
193
100
AcDbEntity
  8
0
100
AcDbBlockBegin
  2
SW_CENTERMARKSYMBOL_19
 70
     0
 10
0.0
 20
0.0
 30
0.0
  3
SW_CENTERMARKSYMBOL_19
  1

  0
LINE
  5
196
330
193
100
AcDbEntity
  8
FORMAT
 62
     0
100
AcDbLine
 10
0.0
 20
0.0
 30
0.0
 11
0.0
 21
2.5
 31
0.0
  0
LINE
  5
197
330
193
100
AcDbEntity
  8
FORMAT
 62
     0
100
AcDbLine
 10
0.0
 20
0.0
 30
0.0
 11
-2.5
 21
0.0
 31
0.0
  0
LINE
  5
198
330
193
100
AcDbEntity
  8
FORMAT
 62
     0
100
AcDbLine
 10
0.0
 20
0.0
 30
0.0
 11
0.0
 21
-2.5
 31
0.0
  0
LINE
  5
199
330
193
100
AcDbEntity
  8
FORMAT
 62
     0
100
AcDbLine
 10
0.0
 20
0.0
 30
0.0
 11
2.5
 21
0.0
 31
0.0
  0
LINE
  5
19A
330
193
100
AcDbEntity
  8
FORMAT
 62
     0
100
AcDbLine
 10
0.0
 20
5.0
 30
0.0
 11
0.0
 21
18.5
 31
0.0
  0
LINE
  5
19B
330
193
100
AcDbEntity
  8
FORMAT
 62
     0
100
AcDbLine
 10
-5.0
 20
0.0
 30
0.0
 11
-18.5
 21
0.0
 31
0.0
  0
LINE
  5
19C
330
193
100
AcDbEntity
  8
FORMAT
 62
     0
100
AcDbLine
 10
0.0
 20
-5.0
 30
0.0
 11
0.0
 21
-18.5
 31
0.0
  0
LINE
  5
19D
330
193
100
AcDbEntity
  8
FORMAT
 62
     0
100
AcDbLine
 10
5.0
 20
0.0
 30
0.0
 11
18.5
 21
0.0
 31
0.0
  0
ENDBLK
  5
195
330
193
100
AcDbEntity
  8
0
100
AcDbBlockEnd
  0
BLOCK
  5
1A0
330
19F
100
AcDbEntity
  8
0
100
AcDbBlockBegin
  2
SW_CENTERMARKSYMBOL_20
 70
     0
 10
0.0
 20
0.0
 30
0.0
  3
SW_CENTERMARKSYMBOL_20
  1

  0
LINE
  5
1A2
330
19F
100
AcDbEntity
  8
FORMAT
 62
     0
100
AcDbLine
 10
0.0
 20
0.0
 30
0.0
 11
0.0
 21
2.5
 31
0.0
  0
LINE
  5
1A3
330
19F
100
AcDbEntity
  8
FORMAT
 62
     0
100
AcDbLine
 10
0.0
 20
0.0
 30
0.0
 11
-2.5
 21
0.0
 31
0.0
  0
LINE
  5
1A4
330
19F
100
AcDbEntity
  8
FORMAT
 62
     0
100
AcDbLine
 10
0.0
 20
0.0
 30
0.0
 11
0.0
 21
-2.5
 31
0.0
  0
LINE
  5
1A5
330
19F
100
AcDbEntity
  8
FORMAT
 62
     0
100
AcDbLine
 10
0.0
 20
0.0
 30
0.0
 11
2.5
 21
0.0
 31
0.0
  0
LINE
  5
1A6
330
19F
100
AcDbEntity
  8
FORMAT
 62
     0
100
AcDbLine
 10
0.0
 20
5.0
 30
0.0
 11
0.0
 21
18.5
 31
0.0
  0
LINE
  5
1A7
330
19F
100
AcDbEntity
  8
FORMAT
 62
     0
100
AcDbLine
 10
-5.0
 20
0.0
 30
0.0
 11
-18.5
 21
0.0
 31
0.0
  0
LINE
  5
1A8
330
19F
100
AcDbEntity
  8
FORMAT
 62
     0
100
AcDbLine
 10
0.0
 20
-5.0
 30
0.0
 11
0.0
 21
-18.5
 31
0.0
  0
LINE
  5
1A9
330
19F
100
AcDbEntity
  8
FORMAT
 62
     0
100
AcDbLine
 10
5.0
 20
0.0
 30
0.0
 11
18.5
 21
0.0
 31
0.0
  0
ENDBLK
  5
1A1
330
19F
100
AcDbEntity
  8
0
100
AcDbBlockEnd
  0
ENDSEC
  0
SECTION
  2
ENTITIES
  0
CIRCLE
  5
83
330
1F
100
AcDbEntity
  8
0
  6
Continuous
 62
     7
370
    25
100
AcDbCircle
 10
-81.4996194676
 20
399.1155265459
 30
0.0
 40
16.00000000000001
  0
CIRCLE
  5
84
330
1F
100
AcDbEntity
  8
0
  6
Continuous
 62
     7
370
    25
100
AcDbCircle
 10
-213.1854526686
 20
217.8655265459
 30
0.0
 40
16.00000000000003
  0
CIRCLE
  5
85
330
1F
100
AcDbEntity
  8
0
  6
Continuous
 62
     7
370
    25
100
AcDbCircle
 10
-213.1854526686
 20
-6.171794376
 30
0.0
 40
16.0
  0
CIRCLE
  5
86
330
1F
100
AcDbEntity
  8
0
  6
Continuous
 62
     7
370
    25
100
AcDbCircle
 10
-81.4996194676
 20
-187.4217943761
 30
0.0
 40
16.00000000000001
  0
CIRCLE
  5
87
330
1F
100
AcDbEntity
  8
0
  6
Continuous
 62
     7
370
    25
100
AcDbCircle
 10
131.5725344884
 20
-256.6531339152
 30
0.0
 40
16.0
  0
CIRCLE
  5
88
330
1F
100
AcDbEntity
  8
0
  6
Continuous
 62
     7
370
    25
100
AcDbCircle
 10
344.6446884445
 20
-187.4217943761
 30
0.0
 40
16.0
  0
CIRCLE
  5
89
330
1F
100
AcDbEntity
  8
0
  6
Continuous
 62
     7
370
    25
100
AcDbCircle
 10
476.3305216455
 20
-6.1717943761
 30
0.0
 40
16.00000000000006
  0
CIRCLE
  5
8A
330
1F
100
AcDbEntity
  8
0
  6
Continuous
 62
     7
370
    25
100
AcDbCircle
 10
424.8411949494
 20
318.9190200409
 30
0.0
 40
16.0
  0
CIRCLE
  5
8B
330
1F
100
AcDbEntity
  8
0
  6
Continuous
 62
     7
370
    25
100
AcDbCircle
 10
243.5911949494
 20
450.6048532419
 30
0.0
 40
15.99999999999997
  0
CIRCLE
  5
8C
330
1F
100
AcDbEntity
  8
0
  6
Continuous
 62
     7
370
    25
100
AcDbCircle
 10
131.5725344885
 20
468.3468660849
 30
0.0
 40
16.00000000000003
  0
CIRCLE
  5
8D
330
1F
100
AcDbEntity
  8
0
  6
Continuous
 62
     7
370
    25
100
AcDbCircle
 10
131.5725344885
 20
105.8468660849
 30
0.0
 40
398.5000000000001
  0
CIRCLE
  5
8E
330
1F
100
AcDbEntity
  8
0
  6
Continuous
 62
     7
370
    25
100
AcDbCircle
 10
131.5725344885
 20
105.8468660849
 30
0.0
 40
323.5
  0
CIRCLE
  5
8F
330
1F
100
AcDbEntity
  8
0
  6
Continuous
 62
     7
370
    25
100
AcDbCircle
 10
476.3305216455
 20
217.8655265458
 30
0.0
 40
16.0
  0
CIRCLE
  5
90
330
1F
100
AcDbEntity
  8
0
  6
Continuous
 62
     7
370
    25
100
AcDbCircle
 10
344.6446884445
 20
399.1155265458
 30
0.0
 40
16.0
  0
CIRCLE
  5
91
330
1F
100
AcDbEntity
  8
0
  6
Continuous
 62
     7
370
    25
100
AcDbCircle
 10
494.0725344885
 20
105.8468660849
 30
0.0
 40
16.0
  0
CIRCLE
  5
92
330
1F
100
AcDbEntity
  8
0
  6
Continuous
 62
     7
370
    25
100
AcDbCircle
 10
424.8411949494
 20
-107.2252878712
 30
0.0
 40
16.0
  0
CIRCLE
  5
93
330
1F
100
AcDbEntity
  8
0
  6
Continuous
 62
     7
370
    25
100
AcDbCircle
 10
243.5911949493
 20
-238.9111210722
 30
0.0
 40
16.00000000000006
  0
CIRCLE
  5
94
330
1F
100
AcDbEntity
  8
0
  6
Continuous
 62
     7
370
    25
100
AcDbCircle
 10
19.5538740275
 20
-238.9111210722
 30
0.0
 40
16.0
  0
CIRCLE
  5
95
330
1F
100
AcDbEntity
  8
0
  6
Continuous
 62
     7
370
    25
100
AcDbCircle
 10
-161.6961259725
 20
-107.2252878711
 30
0.0
 40
16.0
  0
CIRCLE
  5
96
330
1F
100
AcDbEntity
  8
0
  6
Continuous
 62
     7
370
    25
100
AcDbCircle
 10
-230.9274655116
 20
105.8468660849
 30
0.0
 40
16.0
  0
CIRCLE
  5
97
330
1F
100
AcDbEntity
  8
0
  6
Continuous
 62
     7
370
    25
100
AcDbCircle
 10
-161.6961259725
 20
318.919020041
 30
0.0
 40
16.0
  0
CIRCLE
  5
98
330
1F
100
AcDbEntity
  8
0
  6
Continuous
 62
     7
370
    25
100
AcDbCircle
 10
19.5538740275
 20
450.6048532419
 30
0.0
 40
16.0
  0
CIRCLE
  5
99
330
1F
100
AcDbEntity
  8
0
  6
Continuous
 62
     7
370
    25
100
AcDbCircle
 10
424.8411949494
 20
-107.2252878712
 30
0.0
 40
15.0
  0
CIRCLE
  5
9A
330
1F
100
AcDbEntity
  8
0
  6
Continuous
 62
     7
370
    25
100
AcDbCircle
 10
494.0725344885
 20
105.8468660849
 30
0.0
 40
15.0
  0
CIRCLE
  5
9B
330
1F
100
AcDbEntity
  8
0
  6
Continuous
 62
     7
370
    25
100
AcDbCircle
 10
344.6446884445
 20
399.1155265458
 30
0.0
 40
15.00000000000006
  0
CIRCLE
  5
9C
330
1F
100
AcDbEntity
  8
0
  6
Continuous
 62
     7
370
    25
100
AcDbCircle
 10
476.3305216455
 20
217.8655265458
 30
0.0
 40
15.0
  0
CIRCLE
  5
9D
330
1F
100
AcDbEntity
  8
0
  6
Continuous
 62
     7
370
    25
100
AcDbCircle
 10
131.5725344885
 20
105.8468660849
 30
0.0
 40
322.5
  0
CIRCLE
  5
9E
330
1F
100
AcDbEntity
  8
0
  6
Continuous
 62
     7
370
    25
100
AcDbCircle
 10
131.5725344885
 20
105.8468660849
 30
0.0
 40
399.5000000000001
  0
CIRCLE
  5
9F
330
1F
100
AcDbEntity
  8
0
  6
Continuous
 62
     7
370
    25
100
AcDbCircle
 10
131.5725344885
 20
468.3468660849
 30
0.0
 40
15.00000000000003
  0
CIRCLE
  5
A0
330
1F
100
AcDbEntity
  8
0
  6
Continuous
 62
     7
370
    25
100
AcDbCircle
 10
243.5911949494
 20
450.6048532419
 30
0.0
 40
15.00000000000003
  0
CIRCLE
  5
A1
330
1F
100
AcDbEntity
  8
0
  6
Continuous
 62
     7
370
    25
100
AcDbCircle
 10
424.8411949494
 20
318.9190200409
 30
0.0
 40
15.0
  0
CIRCLE
  5
A2
330
1F
100
AcDbEntity
  8
0
  6
Continuous
 62
     7
370
    25
100
AcDbCircle
 10
476.3305216455
 20
-6.1717943761
 30
0.0
 40
15.00000000000006
  0
CIRCLE
  5
A3
330
1F
100
AcDbEntity
  8
0
  6
Continuous
 62
     7
370
    25
100
AcDbCircle
 10
344.6446884445
 20
-187.4217943761
 30
0.0
 40
15.00000000000006
  0
CIRCLE
  5
A4
330
1F
100
AcDbEntity
  8
0
  6
Continuous
 62
     7
370
    25
100
AcDbCircle
 10
19.5538740275
 20
450.6048532419
 30
0.0
 40
15.0
  0
CIRCLE
  5
A5
330
1F
100
AcDbEntity
  8
0
  6
Continuous
 62
     7
370
    25
100
AcDbCircle
 10
-161.6961259725
 20
318.919020041
 30
0.0
 40
15.0
  0
CIRCLE
  5
A6
330
1F
100
AcDbEntity
  8
0
  6
Continuous
 62
     7
370
    25
100
AcDbCircle
 10
-230.9274655116
 20
105.8468660849
 30
0.0
 40
15.0
  0
CIRCLE
  5
A7
330
1F
100
AcDbEntity
  8
0
  6
Continuous
 62
     7
370
    25
100
AcDbCircle
 10
-161.6961259725
 20
-107.2252878711
 30
0.0
 40
15.0
  0
CIRCLE
  5
A8
330
1F
100
AcDbEntity
  8
0
  6
Continuous
 62
     7
370
    25
100
AcDbCircle
 10
19.5538740275
 20
-238.9111210722
 30
0.0
 40
15.0
  0
CIRCLE
  5
A9
330
1F
100
AcDbEntity
  8
0
  6
Continuous
 62
     7
370
    25
100
AcDbCircle
 10
243.5911949493
 20
-238.9111210722
 30
0.0
 40
15.00000000000006
  0
CIRCLE
  5
AA
330
1F
100
AcDbEntity
  8
0
  6
Continuous
 62
     7
370
    25
100
AcDbCircle
 10
-81.4996194676
 20
-187.4217943761
 30
0.0
 40
15.00000000000004
  0
CIRCLE
  5
AB
330
1F
100
AcDbEntity
  8
0
  6
Continuous
 62
     7
370
    25
100
AcDbCircle
 10
-213.1854526686
 20
-6.171794376
 30
0.0
 40
15.0
  0
CIRCLE
  5
AC
330
1F
100
AcDbEntity
  8
0
  6
Continuous
 62
     7
370
    25
100
AcDbCircle
 10
-213.1854526686
 20
217.8655265459
 30
0.0
 40
15.00000000000003
  0
CIRCLE
  5
AD
330
1F
100
AcDbEntity
  8
0
  6
Continuous
 62
     7
370
    25
100
AcDbCircle
 10
131.5725344884
 20
-256.6531339152
 30
0.0
 40
15.0
  0
CIRCLE
  5
AE
330
1F
100
AcDbEntity
  8
0
  6
Continuous
 62
     7
370
    25
100
AcDbCircle
 10
-81.4996194676
 20
399.1155265459
 30
0.0
 40
15.00000000000004
  0
INSERT
  5
BA
330
1F
100
AcDbEntity
  8
FORMAT
 62
     7
100
AcDbBlockReference
  2
SW_CENTERMARKSYMBOL_0
 10
131.5725344885
 20
105.8468660849
 30
0.0
  0
INSERT
  5
C6
330
1F
100
AcDbEntity
  8
FORMAT
 62
     7
100
AcDbBlockReference
  2
SW_CENTERMARKSYMBOL_1
 10
131.5725344885
 20
468.3468660849
 30
0.0
  0
INSERT
  5
D2
330
1F
100
AcDbEntity
  8
FORMAT
 62
     7
100
AcDbBlockReference
  2
SW_CENTERMARKSYMBOL_2
 10
243.5911949494
 20
450.6048532419
 30
0.0
  0
INSERT
  5
DE
330
1F
100
AcDbEntity
  8
FORMAT
 62
     7
100
AcDbBlockReference
  2
SW_CENTERMARKSYMBOL_3
 10
344.6446884445
 20
399.1155265458
 30
0.0
  0
INSERT
  5
EA
330
1F
100
AcDbEntity
  8
FORMAT
 62
     7
100
AcDbBlockReference
  2
SW_CENTERMARKSYMBOL_4
 10
424.8411949494
 20
318.9190200409
 30
0.0
  0
INSERT
  5
F6
330
1F
100
AcDbEntity
  8
FORMAT
 62
     7
100
AcDbBlockReference
  2
SW_CENTERMARKSYMBOL_5
 10
-161.6961259725
 20
-107.2252878711
 30
0.0
  0
INSERT
  5
102
330
1F
100
AcDbEntity
  8
FORMAT
 62
     7
100
AcDbBlockReference
  2
SW_CENTERMARKSYMBOL_6
 10
-230.9274655116
 20
105.8468660849
 30
0.0
  0
INSERT
  5
10E
330
1F
100
AcDbEntity
  8
FORMAT
 62
     7
100
AcDbBlockReference
  2
SW_CENTERMARKSYMBOL_7
 10
-161.6961259725
 20
318.919020041
 30
0.0
  0
INSERT
  5
11A
330
1F
100
AcDbEntity
  8
FORMAT
 62
     7
100
AcDbBlockReference
  2
SW_CENTERMARKSYMBOL_8
 10
19.5538740275
 20
450.6048532419
 30
0.0
  0
INSERT
  5
126
330
1F
100
AcDbEntity
  8
FORMAT
 62
     7
100
AcDbBlockReference
  2
SW_CENTERMARKSYMBOL_9
 10
424.8411949494
 20
-107.2252878712
 30
0.0
  0
INSERT
  5
132
330
1F
100
AcDbEntity
  8
FORMAT
 62
     7
100
AcDbBlockReference
  2
SW_CENTERMARKSYMBOL_10
 10
476.3305216455
 20
-6.1717943761
 30
0.0
  0
INSERT
  5
13E
330
1F
100
AcDbEntity
  8
FORMAT
 62
     7
100
AcDbBlockReference
  2
SW_CENTERMARKSYMBOL_11
 10
494.0725344885
 20
105.8468660849
 30
0.0
  0
INSERT
  5
14A
330
1F
100
AcDbEntity
  8
FORMAT
 62
     7
100
AcDbBlockReference
  2
SW_CENTERMARKSYMBOL_12
 10
476.3305216455
 20
217.8655265458
 30
0.0
  0
INSERT
  5
156
330
1F
100
AcDbEntity
  8
FORMAT
 62
     7
100
AcDbBlockReference
  2
SW_CENTERMARKSYMBOL_13
 10
-81.4996194676
 20
399.1155265459
 30
0.0
  0
INSERT
  5
162
330
1F
100
AcDbEntity
  8
FORMAT
 62
     7
100
AcDbBlockReference
  2
SW_CENTERMARKSYMBOL_14
 10
-213.1854526686
 20
217.8655265459
 30
0.0
  0
INSERT
  5
16E
330
1F
100
AcDbEntity
  8
FORMAT
 62
     7
100
AcDbBlockReference
  2
SW_CENTERMARKSYMBOL_15
 10
-213.1854526686
 20
-6.171794376
 30
0.0
  0
INSERT
  5
17A
330
1F
100
AcDbEntity
  8
FORMAT
 62
     7
100
AcDbBlockReference
  2
SW_CENTERMARKSYMBOL_16
 10
-81.4996194676
 20
-187.4217943761
 30
0.0
  0
INSERT
  5
186
330
1F
100
AcDbEntity
  8
FORMAT
 62
     7
100
AcDbBlockReference
  2
SW_CENTERMARKSYMBOL_17
 10
19.5538740275
 20
-238.9111210722
 30
0.0
  0
INSERT
  5
192
330
1F
100
AcDbEntity
  8
FORMAT
 62
     7
100
AcDbBlockReference
  2
SW_CENTERMARKSYMBOL_18
 10
131.5725344884
 20
-256.6531339152
 30
0.0
  0
INSERT
  5
19E
330
1F
100
AcDbEntity
  8
FORMAT
 62
     7
100
AcDbBlockReference
  2
SW_CENTERMARKSYMBOL_19
 10
243.5911949493
 20
-238.9111210722
 30
0.0
  0
INSERT
  5
1AA
330
1F
100
AcDbEntity
  8
FORMAT
 62
     7
100
AcDbBlockReference
  2
SW_CENTERMARKSYMBOL_20
 10
344.6446884445
 20
-187.4217943761
 30
0.0
  0
LINE
  5
1AB
330
1F
100
AcDbEntity
  8
0
  6
Continuous
 62
     7
370
    25
100
AcDbLine
 10
-694.9631867202
 20
505.3468660849
 30
0.0
 11
-742.9631867202
 21
505.3468660849
 31
0.0
  0
LINE
  5
1AC
330
1F
100
AcDbEntity
  8
0
  6
Continuous
 62
     7
370
    25
100
AcDbLine
 10
-742.9631867202
 20
-293.6531339151
 30
0.0
 11
-694.9631867202
 21
-293.6531339151
 31
0.0
  0
ARC
  5
1AD
330
1F
100
AcDbEntity
  8
0
  6
Continuous
 62
     7
370
    25
100
AcDbCircle
 10
-694.9631867202
 20
-292.6531339151
 30
0.0
 40
1.0
100
AcDbArc
 50
270.0
 51
0.0
  0
ARC
  5
1AE
330
1F
100
AcDbEntity
  8
0
  6
Continuous
 62
     7
370
    25
100
AcDbCircle
 10
-694.9631867202
 20
504.3468660849
 30
0.0
 40
1.0
100
AcDbArc
 50
0.0
 51
90.0
  0
ARC
  5
1AF
330
1F
100
AcDbEntity
  8
0
  6
Continuous
 62
     7
370
    25
100
AcDbCircle
 10
-742.9631867202
 20
-292.6531339151
 30
0.0
 40
1.0
100
AcDbArc
 50
180.0
 51
270.0
  0
ARC
  5
1B0
330
1F
100
AcDbEntity
  8
0
  6
Continuous
 62
     7
370
    25
100
AcDbCircle
 10
-742.9631867202
 20
504.3468660849
 30
0.0
 40
1.0
100
AcDbArc
 50
90.0
 51
180.0
  0
LINE
  5
1B1
330
1F
100
AcDbEntity
  8
0
  6
Continuous
 62
     7
370
    25
100
AcDbLine
 10
-693.9631867202
 20
105.8468660849
 30
0.0
 11
-693.9631867202
 21
-292.6531339151
 31
0.0
  0
LINE
  5
1B2
330
1F
100
AcDbEntity
  8
0
  6
Continuous
 62
     7
370
    25
100
AcDbLine
 10
-693.9631867202
 20
504.3468660849
 30
0.0
 11
-693.9631867202
 21
105.8468660849
 31
0.0
  0
LINE
  5
1B3
330
1F
100
AcDbEntity
  8
0
  6
Continuous
 62
     7
370
    25
100
AcDbLine
 10
-743.9631867202
 20
105.8468660849
 30
0.0
 11
-743.9631867202
 21
504.3468660849
 31
0.0
  0
LINE
  5
1B4
330
1F
100
AcDbEntity
  8
0
  6
Continuous
 62
     7
370
    25
100
AcDbLine
 10
-743.9631867202
 20
-292.6531339151
 30
0.0
 11
-743.9631867202
 21
105.8468660849
 31
0.0
  0
LINE
  5
1B5
330
1F
100
AcDbEntity
  8
0
  6
Continuous
 62
     1
370
    25
100
AcDbLine
 10
-742.9631867202
 20
105.8468660849
 30
0.0
 11
-742.9631867202
 21
-293.6531339151
 31
0.0
  0
LINE
  5
1B6
330
1F
100
AcDbEntity
  8
0
  6
Continuous
 62
     1
370
    25
100
AcDbLine
 10
-742.9631867202
 20
505.3468660849
 30
0.0
 11
-742.9631867202
 21
105.8468660849
 31
0.0
  0
LINE
  5
1B7
330
1F
100
AcDbEntity
  8
0
  6
Continuous
 62
     1
370
    25
100
AcDbLine
 10
-694.9631867202
 20
105.8468660849
 30
0.0
 11
-694.9631867202
 21
505.3468660849
 31
0.0
  0
LINE
  5
1B8
330
1F
100
AcDbEntity
  8
0
  6
Continuous
 62
     1
370
    25
100
AcDbLine
 10
-694.9631867202
 20
-293.6531339151
 30
0.0
 11
-694.9631867202
 21
105.8468660849
 31
0.0
  0
LINE
  5
1B9
330
1F
100
AcDbEntity
  8
0
  6
Continuous
 62
     7
370
    25
100
AcDbLine
 10
910.6801054309
 20
-293.6531339151
 30
0.0
 11
958.6801054309
 21
-293.6531339151
 31
0.0
  0
LINE
  5
1BA
330
1F
100
AcDbEntity
  8
0
  6
Continuous
 62
     7
370
    25
100
AcDbLine
 10
958.6801054309
 20
505.3468660849
 30
0.0
 11
910.6801054309
 21
505.3468660849
 31
0.0
  0
ARC
  5
1BB
330
1F
100
AcDbEntity
  8
0
  6
Continuous
 62
     7
370
    25
100
AcDbCircle
 10
910.6801054309
 20
504.3468660849
 30
0.0
 40
1.0
100
AcDbArc
 50
90.0
 51
180.0
  0
ARC
  5
1BC
330
1F
100
AcDbEntity
  8
0
  6
Continuous
 62
     7
370
    25
100
AcDbCircle
 10
910.6801054309
 20
-292.6531339151
 30
0.0
 40
1.0
100
AcDbArc
 50
180.0
 51
270.0
  0
ARC
  5
1BD
330
1F
100
AcDbEntity
  8
0
  6
Continuous
 62
     7
370
    25
100
AcDbCircle
 10
958.6801054309
 20
504.3468660849
 30
0.0
 40
1.0
100
AcDbArc
 50
0.0
 51
90.0
  0
ARC
  5
1BE
330
1F
100
AcDbEntity
  8
0
  6
Continuous
 62
     7
370
    25
100
AcDbCircle
 10
958.6801054309
 20
-292.6531339151
 30
0.0
 40
1.0
100
AcDbArc
 50
270.0
 51
0.0
  0
LINE
  5
1BF
330
1F
100
AcDbEntity
  8
0
  6
Continuous
 62
     7
370
    25
100
AcDbLine
 10
909.6801054309
 20
-292.6531339151
 30
0.0
 11
909.6801054309
 21
504.3468660849
 31
0.0
  0
LINE
  5
1C0
330
1F
100
AcDbEntity
  8
0
  6
Continuous
 62
     7
370
    25
100
AcDbLine
 10
959.6801054309
 20
504.3468660849
 30
0.0
 11
959.6801054309
 21
-292.6531339151
 31
0.0
  0
LINE
  5
1C1
330
1F
100
AcDbEntity
  8
0
  6
Continuous
 62
     1
370
    25
100
AcDbLine
 10
958.6801054309
 20
-293.6531339151
 30
0.0
 11
958.6801054309
 21
505.3468660849
 31
0.0
  0
LINE
  5
1C2
330
1F
100
AcDbEntity
  8
0
  6
Continuous
 62
     1
370
    25
100
AcDbLine
 10
910.6801054309
 20
505.3468660849
 30
0.0
 11
910.6801054309
 21
-293.6531339151
 31
0.0
  0
LINE
  5
1C3
330
1F
100
AcDbEntity
  8
0
  6
Continuous
 62
     7
370
    25
100
AcDbLine
 10
531.0725344885
 20
785.1364109177
 30
0.0
 11
531.0725344885
 21
833.1364109177
 31
0.0
  0
LINE
  5
1C4
330
1F
100
AcDbEntity
  8
0
  6
Continuous
 62
     7
370
    25
100
AcDbLine
 10
-267.9274655115
 20
833.1364109177
 30
0.0
 11
-267.9274655115
 21
785.1364109177
 31
0.0
  0
ARC
  5
1C5
330
1F
100
AcDbEntity
  8
0
  6
Continuous
 62
     7
370
    25
100
AcDbCircle
 10
-266.9274655115
 20
785.1364109177
 30
0.0
 40
1.0
100
AcDbArc
 50
180.0
 51
270.0
  0
ARC
  5
1C6
330
1F
100
AcDbEntity
  8
0
  6
Continuous
 62
     7
370
    25
100
AcDbCircle
 10
530.0725344885
 20
785.1364109177
 30
0.0
 40
1.0
100
AcDbArc
 50
270.0
 51
0.0
  0
ARC
  5
1C7
330
1F
100
AcDbEntity
  8
0
  6
Continuous
 62
     7
370
    25
100
AcDbCircle
 10
-266.9274655115
 20
833.1364109177
 30
0.0
 40
1.0
100
AcDbArc
 50
90.0
 51
180.0
  0
ARC
  5
1C8
330
1F
100
AcDbEntity
  8
0
  6
Continuous
 62
     7
370
    25
100
AcDbCircle
 10
530.0725344885
 20
833.1364109177
 30
0.0
 40
1.0
100
AcDbArc
 50
0.0
 51
90.0
  0
LINE
  5
1C9
330
1F
100
AcDbEntity
  8
0
  6
Continuous
 62
     7
370
    25
100
AcDbLine
 10
530.0725344885
 20
784.1364109177
 30
0.0
 11
-266.9274655115
 21
784.1364109177
 31
0.0
  0
LINE
  5
1CA
330
1F
100
AcDbEntity
  8
0
  6
Continuous
 62
     7
370
    25
100
AcDbLine
 10
-266.9274655115
 20
834.1364109177
 30
0.0
 11
530.0725344885
 21
834.1364109177
 31
0.0
  0
LINE
  5
1CB
330
1F
100
AcDbEntity
  8
0
  6
Continuous
 62
     1
370
    25
100
AcDbLine
 10
531.0725344885
 20
833.1364109177
 30
0.0
 11
-267.9274655115
 21
833.1364109177
 31
0.0
  0
LINE
  5
1CC
330
1F
100
AcDbEntity
  8
0
  6
Continuous
 62
     1
370
    25
100
AcDbLine
 10
-267.9274655115
 20
785.1364109177
 30
0.0
 11
531.0725344885
 21
785.1364109177
 31
0.0
  0
LINE
  5
1CD
330
1F
100
AcDbEntity
  8
0
  6
Continuous
 62
     7
370
    25
100
AcDbLine
 10
-267.9274655115
 20
-730.50110636
 30
0.0
 11
-267.9274655115
 21
-778.50110636
 31
0.0
  0
LINE
  5
1CE
330
1F
100
AcDbEntity
  8
0
  6
Continuous
 62
     7
370
    25
100
AcDbLine
 10
531.0725344885
 20
-778.50110636
 30
0.0
 11
531.0725344885
 21
-730.50110636
 31
0.0
  0
ARC
  5
1CF
330
1F
100
AcDbEntity
  8
0
  6
Continuous
 62
     7
370
    25
100
AcDbCircle
 10
530.0725344885
 20
-730.50110636
 30
0.0
 40
1.0
100
AcDbArc
 50
0.0
 51
90.0
  0
ARC
  5
1D0
330
1F
100
AcDbEntity
  8
0
  6
Continuous
 62
     7
370
    25
100
AcDbCircle
 10
-266.9274655115
 20
-730.50110636
 30
0.0
 40
1.0
100
AcDbArc
 50
90.0
 51
180.0
  0
ARC
  5
1D1
330
1F
100
AcDbEntity
  8
0
  6
Continuous
 62
     7
370
    25
100
AcDbCircle
 10
530.0725344885
 20
-778.50110636
 30
0.0
 40
1.0
100
AcDbArc
 50
270.0
 51
0.0
  0
ARC
  5
1D2
330
1F
100
AcDbEntity
  8
0
  6
Continuous
 62
     7
370
    25
100
AcDbCircle
 10
-266.9274655115
 20
-778.50110636
 30
0.0
 40
1.0
100
AcDbArc
 50
180.0
 51
270.0
  0
LINE
  5
1D3
330
1F
100
AcDbEntity
  8
0
  6
Continuous
 62
     7
370
    25
100
AcDbLine
 10
530.0725344885
 20
-729.50110636
 30
0.0
 11
-266.9274655115
 21
-729.50110636
 31
0.0
  0
LINE
  5
1D4
330
1F
100
AcDbEntity
  8
0
  6
Continuous
 62
     7
370
    25
100
AcDbLine
 10
530.0725344885
 20
-779.50110636
 30
0.0
 11
-266.9274648013
 21
-779.50110636
 31
0.0
  0
LINE
  5
1D5
330
1F
100
AcDbEntity
  8
0
  6
Continuous
 62
     1
370
    25
100
AcDbLine
 10
-267.9274655115
 20
-778.50110636
 30
0.0
 11
531.0725344885
 21
-778.50110636
 31
0.0
  0
LINE
  5
1D6
330
1F
100
AcDbEntity
  8
0
  6
Continuous
 62
     1
370
    25
100
AcDbLine
 10
531.0725344885
 20
-730.50110636
 30
0.0
 11
-267.9274655115
 21
-730.50110636
 31
0.0
  0
SPLINE
  5
1D7
330
1F
100
AcDbEntity
  8
0
  6
Continuous
 62
     7
370
    25
100
AcDbSpline
210
0.0
220
0.0
230
1.0
 70
     8
 71
     3
 72
   101
 73
    97
 74
     0
 42
0.00000001
 43
0.00000001
 40
0.0
 40
0.0
 40
0.0
 40
0.0
 40
0.0036421813546408
 40
0.0143816190436053
 40
0.025123180278767
 40
0.0358667868048456
 40
0.0466123212200538
 40
0.0573596372592619
 40
0.0681085695204178
 40
0.0788589421535112
 40
0.0896105762305143
 40
0.1003632956854449
 40
0.1111169318457821
 40
0.1218713266675227
 40
0.1326263348405837
 40
0.1433818249552251
 40
0.1541376799220763
 40
0.1648937968253761
 40
0.1756500863675057
 40
0.186406472037716
 40
0.1971628832941721
 40
0.2079192560841143
 40
0.2186755489561802
 40
0.2294317286120139
 40
0.2401877688940585
 40
0.2509436498496529
 40
0.261699356878975
 40
0.2724548799694479
 40
0.2832102130154651
 40
0.2939653532194273
 40
0.3047203005687485
 40
0.3154750573823872
 40
0.3262296279202825
 40
0.3369840180489387
 40
0.3477382349567457
 40
0.358492286913011
 40
0.3692461830650865
 40
0.3799999332686167
 40
0.390753547946324
 40
0.4015070379713294
 40
0.4122604145714446
 40
0.4230136892513245
 40
0.4337668737297025
 40
0.444519979889364
 40
0.4552730197376891
 40
0.4660260053759824
 40
0.4767789489759446
 40
0.4875318627618168
 40
0.4982847589969556
 40
0.509037649973604
 40
0.5197905470286468
 40
0.530543459360108
 40
0.5412963993043468
 40
0.5520493791996924
 40
0.562802411377157
 40
0.5735555081486916
 40
0.5843086817915991
 40
0.5950619445278542
 40
0.6058153084970018
 40
0.6165687857210078
 40
0.627322388059393
 40
0.638076127152581
 40
0.648830014351254
 40
0.65958406062904
 40
0.6703382764755993
 40
0.6810926717667244
 40
0.6918472556075543
 40
0.7026020361445827
 40
0.7133570203415757
 40
0.7241122137139795
 40
0.7348676200158648
 40
0.7456232408730231
 40
0.7563790753554182
 40
0.7671351194820837
 40
0.7778913656516029
 40
0.7886478019919354
 40
0.799404411624495
 40
0.8101611718393946
 40
0.8209180531819928
 40
0.8316750184555234
 40
0.842432018779597
 40
0.8531889801572573
 40
0.8639458316679131
 40
0.8747024898515456
 40
0.8854588577334003
 40
0.8962148240632298
 40
0.9069702628883705
 40
0.9177250336073268
 40
0.9284789816751643
 40
0.9392319401511169
 40
0.9499837322862483
 40
0.9607341753384976
 40
0.9714830857655428
 40
0.9822302858748033
 40
0.9929756118991021
 40
1.0
 40
1.0
 40
1.0
 40
1.0
 10
1124.095322240554
 20
-334.3136396750792
 30
0.0
 10
1123.320092663939
 20
-334.2324189982202
 30
0.0
 10
1120.258999501181
 20
-333.9117087646229
 30
0.0
 10
1114.798644995105
 20
-333.647049798077
 30
0.0
 10
1107.720103620207
 20
-333.5219645488523
 30
0.0
 10
1100.534624342341
 20
-333.7056750190495
 30
0.0
 10
1093.257700273012
 20
-334.1728027954535
 30
0.0
 10
1085.892520153263
 20
-334.9297906834886
 30
0.0
 10
1078.445669856028
 20
-335.9742476206297
 30
0.0
 10
1070.922913466452
 20
-337.3058452929444
 30
0.0
 10
1063.330313824984
 20
-338.9233990583776
 30
0.0
 10
1055.673922591951
 20
-340.825652678991
 30
0.0
 10
1047.959854381048
 20
-343.0110711291344
 30
0.0
 10
1040.194258670228
 20
-345.4778997453947
 30
0.0
 10
1032.383319778246
 20
-348.2241523096867
 30
0.0
 10
1024.533249912166
 20
-351.2476183424262
 30
0.0
 10
1016.650284565366
 20
-354.5458653087198
 30
0.0
 10
1008.740677674662
 20
-358.1162421831846
 30
0.0
 10
1000.810697130672
 20
-361.9558826118819
 30
0.0
 10
992.8666218247029
 20
-366.0617073929639
 30
0.0
 10
984.9147384050472
 20
-370.4304268082318
 30
0.0
 10
976.9613338057972
 20
-375.058545207345
 30
0.0
 10
969.0126896186578
 20
-379.9423652134926
 30
0.0
 10
961.0750768738648
 20
-385.0779919471192
 30
0.0
 10
953.1547550363558
 20
-390.461334404167
 30
0.0
 10
945.257967657646
 20
-396.0881087167747
 30
0.0
 10
937.3909379780405
 20
-401.9538415022378
 30
0.0
 10
929.5598644820844
 20
-408.0538733138085
 30
0.0
 10
921.7709164123784
 20
-414.3833622044002
 30
0.0
 10
914.0302292486476
 20
-420.9372874117409
 30
0.0
 10
906.3439001600717
 20
-427.7104531711871
 30
0.0
 10
898.7179834394265
 20
-434.6974926604291
 30
0.0
 10
891.1584859278569
 20
-441.8928720785316
 30
0.0
 10
883.6713624390459
 20
-449.2908948602996
 30
0.0
 10
876.2625111913486
 20
-456.8857060256968
 30
0.0
 10
868.9377692561421
 20
-464.6712966630321
 30
0.0
 10
861.7029080302498
 20
-472.6415085437936
 30
0.0
 10
854.563628739899
 20
-480.7900388663099
 30
0.0
 10
847.5255579832344
 20
-489.1104451248978
 30
0.0
 10
840.5942433180073
 20
-497.5961501006814
 30
0.0
 10
833.7751489006585
 20
-506.2404469699482
 30
0.0
 10
827.0736511826442
 20
-515.0365045256035
 30
0.0
 10
820.4950346695103
 20
-523.9773725070735
 30
0.0
 10
814.0444877479111
 20
-533.0559870338118
 30
0.0
 10
807.727098585473
 20
-542.2651761374335
 30
0.0
 10
801.5478511081504
 20
-551.597665387365
 30
0.0
 10
795.5116210594823
 20
-561.0460836048019
 30
0.0
 10
789.6231721459335
 20
-570.6029686596771
 30
0.0
 10
783.8871522723314
 20
-580.2607733452504
 30
0.0
 10
778.3080900400163
 20
-590.0118710298068
 30
0.0
 10
772.8903915084082
 20
-599.8485609993722
 30
0.0
 10
767.6383361231101
 20
-609.7630754559727
 30
0.0
 10
762.5560731947004
 20
-619.7475859671141
 30
0.0
 10
757.647618352817
 20
-629.7942103423358
 30
0.0
 10
752.9168509225619
 20
-639.8950179031277
 30
0.0
 10
748.3675108889969
 20
-650.0420357448219
 30
0.0
 10
744.0031959778797
 20
-660.2272550305642
 30
0.0
 10
739.8273588553375
 20
-670.4426373110811
 30
0.0
 10
735.8433044489652
 20
-680.6801208639354
 30
0.0
 10
732.0541873926325
 20
-690.9316270458243
 30
0.0
 10
728.4630095971128
 20
-701.1890666512828
 30
0.0
 10
725.0726179483842
 20
-711.4443462710096
 30
0.0
 10
721.8857021352194
 20
-721.689374642802
 30
0.0
 10
718.9047926073433
 20
-731.9160689878997
 30
0.0
 10
716.1322586650947
 20
-742.1163613253146
 30
0.0
 10
713.5703066810877
 20
-752.2822047564774
 30
0.0
 10
711.2209784538596
 20
-762.4055797123265
 30
0.0
 10
709.0861496929022
 20
-772.4785001547132
 30
0.0
 10
707.1675286337389
 20
-782.4930197238393
 30
0.0
 10
705.4666547808974
 20
-792.441237823256
 30
0.0
 10
703.9848977756145
 20
-802.3153056339149
 30
0.0
 10
702.7234563839897
 20
-812.1074320487662
 30
0.0
 10
701.6833575999693
 20
-821.8098895196389
 30
0.0
 10
700.8654558560552
 20
-831.415019808526
 30
0.0
 10
700.2704323329529
 20
-840.9152396361721
 30
0.0
 10
699.8987943575612
 20
-850.3030462219696
 30
0.0
 10
699.7508748767623
 20
-859.5710227108614
 30
0.0
 10
699.8268319925413
 20
-868.7118434852255
 30
0.0
 10
700.1266485420556
 20
-877.7182793629765
 30
0.0
 10
700.6501316584287
 20
-886.5832018978632
 30
0.0
 10
701.3969119251416
 20
-895.2995843435184
 30
0.0
 10
702.3664427234647
 20
-903.8605107996779
 30
0.0
 10
703.5579997834789
 20
-912.2591818782516
 30
0.0
 10
704.970681514759
 20
-920.4889232604548
 30
0.0
 10
706.6034080239425
 20
-928.5431868485502
 30
0.0
 10
708.4549209722375
 20
-936.4155552748856
 30
0.0
 10
710.523781419209
 20
-944.0997490218126
 30
0.0
 10
712.8083751754373
 20
-951.5896246047178
 30
0.0
 10
715.3068903543518
 20
-958.8792072306621
 30
0.0
 10
718.0173992323504
 20
-965.9625962494234
 30
0.0
 10
720.937551928697
 20
-972.8343469981874
 30
0.0
 10
724.0657202308182
 20
-979.4880769066091
 30
0.0
 10
727.3967328604193
 20
-985.9216994147213
 30
0.0
 10
730.937794716437
 20
-992.1179295751552
 30
0.0
 10
734.2209416880461
 20
-997.42496026929
 30
0.0
 10
736.4061466590908
 20
-1000.563412844736
 30
0.0
 10
737.2699606567998
 20
-1001.804046699107
 30
0.0
  0
LINE
  5
1D8
330
1F
100
AcDbEntity
  8
0
  6
Continuous
 62
     7
370
    25
100
AcDbLine
 10
1216.2422407464
 20
-371.9655245522
 30
0.0
 11
1182.3011152495
 21
-352.3717298685
 31
0.0
  0
LINE
  5
1D9
330
1F
100
AcDbEntity
  8
0
  6
Continuous
 62
     7
370
    25
100
AcDbLine
 10
782.8335815614
 20
-1044.3447709107
 30
0.0
 11
816.7747070583
 21
-1063.9385655944
 31
0.0
  0
SPLINE
  5
1DA
330
1F
100
AcDbEntity
  8
0
  6
Continuous
 62
     7
370
    25
100
AcDbSpline
210
0.0
220
0.0
230
1.0
 70
     8
 71
     3
 72
    82
 73
    78
 74
     0
 42
0.00000001
 43
0.00000001
 40
0.0
 40
0.0
 40
0.0
 40
0.0
 40
0.0049708470044735
 40
0.0184279773615886
 40
0.0318877438494085
 40
0.0453500316710911
 40
0.0588146810400874
 40
0.0722814999269834
 40
0.08575027589226
 40
0.0992207864831507
 40
0.1126928079135055
 40
0.1261661219449929
 40
0.1396405210373634
 40
0.1531158119344581
 40
0.1665918179077824
 40
0.1800683798998713
 40
0.1935453568052677
 40
0.2070226251065244
 40
0.2205000780536969
 40
0.2339776245437122
 40
0.2474551738910143
 40
0.2609326576090315
 40
0.2744100270983508
 40
0.2878872435688646
 40
0.3013642767999446
 40
0.314841103999889
 40
0.3283177087721373
 40
0.3417940801898262
 40
0.3552702119758845
 40
0.3687461017831941
 40
0.3822217505674006
 40
0.3956971620443184
 40
0.4091723422234674
 40
0.4226472990093928
 40
0.4361220418629193
 40
0.4495965815148476
 40
0.463070929725428
 40
0.4765450990834154
 40
0.4900191028392558
 40
0.50349295476759
 40
0.5169666690547148
 40
0.5304402602073092
 40
0.5439137429790989
 40
0.5573871323125655
 40
0.5708604432932133
 40
0.5843336911141233
 40
0.5978068910488953
 40
0.6112800584311778
 40
0.6247532086392559
 40
0.6382263570842028
 40
0.6516995163674607
 40
0.6651726996280611
 40
0.6786459223250756
 40
0.6921191999166589
 40
0.7055925478476153
 40
0.7190659815333416
 40
0.7325395163384787
 40
0.7460131675486634
 40
0.7594869503336523
 40
0.7729608796997055
 40
0.7864349704290418
 40
0.7999092370036909
 40
0.8133836935108071
 40
0.826858353526017
 40
0.8403332299709342
 40
0.8538083349403758
 40
0.867283679494329
 40
0.8807592734089094
 40
0.894235124880099
 40
0.9077112401731667
 40
0.9211876232101975
 40
0.9346642750875205
 40
0.9481411935144406
 40
0.9616183721646171
 40
0.9750957999316118
 40
0.9885734600812363
 40
0.9999999999999999
 40
0.9999999999999999
 40
0.9999999999999999
 40
0.9999999999999999
 10
876.9320973918466
 20
-1082.164783438829
 30
0.0
 10
877.7807159905002
 20
-1082.242391486182
 30
0.0
 10
880.9267239667138
 20
-1082.530100872214
 30
0.0
 10
886.4829158890635
 20
-1082.729130510323
 30
0.0
 10
893.593509583963
 20
-1082.763048957828
 30
0.0
 10
900.8087669581961
 20
-1082.489160451574
 30
0.0
 10
908.1137926272941
 20
-1081.931669268535
 30
0.0
 10
915.5052054176439
 20
-1081.08454272669
 30
0.0
 10
922.9764421524392
 20
-1079.950157448738
 30
0.0
 10
930.5217070225785
 20
-1078.528940796954
 30
0.0
 10
938.1349231295577
 20
-1076.822145387976
 30
0.0
 10
945.8100228910627
 20
-1074.831102854379
 30
0.0
 10
953.5408789193067
 20
-1072.557420538024
 30
0.0
 10
961.3213305506226
 20
-1070.002925037989
 30
0.0
 10
969.1451840918481
 20
-1067.169673339067
 30
0.0
 10
977.0062195474619
 20
-1064.059945701563
 30
0.0
 10
984.8981951490174
 20
-1060.676243402076
 30
0.0
 10
992.8148521167675
 20
-1057.021285192614
 30
0.0
 10
1000.749919099718
 20
-1053.098004147453
 30
0.0
 10
1008.697113789919
 20
-1048.909545897665
 30
0.0
 10
1016.65014899775
 20
-1044.459264956711
 30
0.0
 10
1024.602738562821
 20
-1039.750720749466
 30
0.0
 10
1032.548604281577
 20
-1034.78767251781
 30
0.0
 10
1040.481478278589
 20
-1029.574076862199
 30
0.0
 10
1048.395105599034
 20
-1024.114085495757
 30
0.0
 10
1056.283248572518
 20
-1018.412041957554
 30
0.0
 10
1064.139691225897
 20
-1012.472478233134
 30
0.0
 10
1071.95824374151
 20
-1006.300111269456
 30
0.0
 10
1079.732746955048
 20
-999.8998393739704
 30
0.0
 10
1087.457076885734
 20
-993.2767384901034
 30
0.0
 10
1095.125149290637
 20
-986.4360583435199
 30
0.0
 10
1102.730924234404
 20
-979.3832184555755
 30
0.0
 10
1110.268410665614
 20
-972.1238040219682
 30
0.0
 10
1117.731670991023
 20
-964.6635616560291
 30
0.0
 10
1125.114825639227
 20
-957.0083949972625
 30
0.0
 10
1132.412057605603
 20
-949.164360186695
 30
0.0
 10
1139.6176169708
 20
-941.1376612113987
 30
0.0
 10
1146.72582538545
 20
-932.934645121176
 30
0.0
 10
1153.731080514208
 20
-924.5617971209097
 30
0.0
 10
1160.627860432634
 20
-916.0257355425032
 30
0.0
 10
1167.410727970806
 20
-907.3332067006401
 30
0.0
 10
1174.074334997935
 20
-898.4910796368843
 30
0.0
 10
1180.613426642573
 20
-889.5063407568293
 30
0.0
 10
1187.022845443311
 20
-880.386088365181
 30
0.0
 10
1193.297535425154
 20
-871.1375271038094
 30
0.0
 10
1199.432546096999
 20
-861.7679622978958
 30
0.0
 10
1205.423036365879
 20
-852.2847942154278
 30
0.0
 10
1211.26427836385
 20
-842.6955122453488
 30
0.0
 10
1216.951661183564
 20
-833.0076889998159
 30
0.0
 10
1222.480694131327
 20
-823.2289750312632
 30
0.0
 10
1227.847010400965
 20
-813.3670927040573
 30
0.0
 10
1233.046370867954
 20
-803.4298295491745
 30
0.0
 10
1238.07466776467
 20
-793.4250313969815
 30
0.0
 10
1242.927927783271
 20
-783.3605962827534
 30
0.0
 10
1247.602314882709
 20
-773.2444687740395
 30
0.0
 10
1252.094133288158
 20
-763.0846336980649
 30
0.0
 10
1256.399830373334
 20
-752.8891098390184
 30
0.0
 10
1260.515999423084
 20
-742.6659436114986
 30
0.0
 10
1264.439382273805
 20
-732.4232027164824
 30
0.0
 10
1268.166871829502
 20
-722.1689697862846
 30
0.0
 10
1271.69551445131
 20
-711.9113360252838
 30
0.0
 10
1275.022512219195
 20
-701.6583948529737
 30
0.0
 10
1278.145225062509
 20
-691.4182355574507
 30
0.0
 10
1281.061172764914
 20
-681.1989369627587
 30
0.0
 10
1283.768036817977
 20
-671.008561131928
 30
0.0
 10
1286.263662215867
 20
-660.8551470599708
 30
0.0
 10
1288.546058845212
 20
-650.7467045642991
 30
0.0
 10
1290.613403762641
 20
-640.69120763619
 30
0.0
 10
1292.464039540833
 20
-630.6965900403784
 30
0.0
 10
1294.096486677265
 20
-620.7707328006858
 30
0.0
 10
1295.509402921148
 20
-610.9214822847936
 30
0.0
 10
1296.701740130411
 20
-601.1565544449388
 30
0.0
 10
1297.672163358301
 20
-591.4838643396314
 30
0.0
 10
1298.421222891413
 20
-581.9102688730569
 30
0.0
 10
1298.943251350739
 20
-572.4462321263499
 30
0.0
 10
1299.240710120712
 20
-563.5631489226965
 30
0.0
 10
1299.274858330625
 20
-557.8870399405555
 30
0.0
 10
1299.290526205228
 20
-555.2827287926533
 30
0.0
  0
SPLINE
  5
1DB
330
1F
100
AcDbEntity
  8
0
  6
Continuous
 62
     7
370
    25
100
AcDbSpline
210
0.0
220
0.0
230
1.0
 70
     8
 71
     3
 72
    26
 73
    22
 74
     0
 42
0.00000001
 43
0.00000001
 40
0.0
 40
0.0
 40
0.0
 40
0.0
 40
0.0284271352746403
 40
0.0824325365951008
 40
0.1364398684658759
 40
0.1904474682210117
 40
0.244454986522888
 40
0.2984620711629891
 40
0.3524683233784638
 40
0.4064732779945041
 40
0.460476399209585
 40
0.5144770778545389
 40
0.5684746308195154
 40
0.6224683034725376
 40
0.6764572759995842
 40
0.7304406746566198
 40
0.7844175889024063
 40
0.838387095241983
 40
0.8923482883116103
 40
0.9463003192435264
 40
1.0
 40
1.0
 40
1.0
 40
1.0
 10
1299.290526205228
 20
-555.2827287926533
 30
0.0
 10
1299.284286173016
 20
-553.6749867753485
 30
0.0
 10
1299.266191430839
 20
-549.0128830706823
 30
0.0
 10
1299.065162506208
 20
-541.3965972341337
 30
0.0
 10
1298.614042289921
 20
-532.4853606221147
 30
0.0
 10
1297.936448300084
 20
-523.7221063991595
 30
0.0
 10
1297.036727662808
 20
-515.1116981499955
 30
0.0
 10
1295.914516939136
 20
-506.6615534262529
 30
0.0
 10
1294.570938712436
 20
-498.3782301773609
 30
0.0
 10
1293.00694290713
 20
-490.2683582349163
 30
0.0
 10
1291.223751843208
 20
-482.3383852183917
 30
0.0
 10
1289.222742447515
 20
-474.5946374857517
 30
0.0
 10
1287.005475867395
 20
-467.0433003685224
 30
0.0
 10
1284.57370010077
 20
-459.6904042347721
 30
0.0
 10
1281.929312687682
 20
-452.5418663262702
 30
0.0
 10
1279.074509112347
 20
-445.6033017032546
 30
0.0
 10
1276.011226705246
 20
-438.8806995666472
 30
0.0
 10
1272.743217811183
 20
-432.3778670862123
 30
0.0
 10
1269.268308695639
 20
-426.1059331679638
 30
0.0
 10
1265.612757413816
 20
-420.0569271041662
 30
0.0
 10
1263.011286481578
 20
-416.2267073435319
 30
0.0
 10
1261.713600115357
 20
-414.3160867398527
 30
0.0
  0
SPLINE
  5
1DC
330
1F
100
AcDbEntity
  8
0
  6
Continuous
 62
     7
370
    25
100
AcDbSpline
210
0.0
220
0.0
230
1.0
 70
     8
 71
     3
 72
    25
 73
    21
 74
     0
 42
0.00000001
 43
0.00000001
 40
0.0
 40
0.0
 40
0.0
 40
0.0
 40
0.0242798538921747
 40
0.084170571287155
 40
0.1440450622787263
 40
0.2039042882159876
 40
0.2637495092905893
 40
0.3235821749077219
 40
0.3834038279296051
 40
0.4432160262416493
 40
0.5030202824697774
 40
0.5628180208351461
 40
0.6226105490236571
 40
0.6823990424361628
 40
0.7421845381062493
 40
0.8019679357655646
 40
0.861750003879533
 40
0.92153138887219
 40
0.9813125909184998
 40
1.0
 40
1.0
 40
1.0
 40
1.0
 10
1179.889904898085
 20
-452.6121898420857
 30
0.0
 10
1180.375807433814
 20
-453.2894031399665
 30
0.0
 10
1182.060277785401
 20
-455.6370873731179
 30
0.0
 10
1184.740823398279
 20
-459.9070360339612
 30
0.0
 10
1187.93086249106
 20
-465.4103222309762
 30
0.0
 10
1190.908222040029
 20
-471.1561696019873
 30
0.0
 10
1193.685108134523
 20
-477.1200510164381
 30
0.0
 10
1196.254845823163
 20
-483.3012579673928
 30
0.0
 10
1198.616054411526
 20
-489.692450886596
 30
0.0
 10
1200.766172602191
 20
-496.2878156939512
 30
0.0
 10
1202.703195570548
 20
-503.0808799324919
 30
0.0
 10
1204.425211674305
 20
-510.0651009257393
 30
0.0
 10
1205.930536392855
 20
-517.2337088038182
 30
0.0
 10
1207.217660423664
 20
-524.5797650790074
 30
0.0
 10
1208.28534551436
 20
-532.0961103749338
 30
0.0
 10
1209.1323151698
 20
-539.7755459846583
 30
0.0
 10
1209.758416898136
 20
-547.610196276691
 30
0.0
 10
1210.16030155236
 20
-555.5939167012416
 30
0.0
 10
1210.304652480065
 20
-561.8528930510547
 30
0.0
 10
1210.314134066307
 20
-565.4480473066526
 30
0.0
 10
1210.316392119282
 20
-566.3042383022599
 30
0.0
  0
SPLINE
  5
1DD
330
1F
100
AcDbEntity
  8
0
  6
Continuous
 62
     7
370
    25
100
AcDbSpline
210
0.0
220
0.0
230
1.0
 70
     8
 71
     3
 72
    76
 73
    72
 74
     0
 42
0.00000001
 43
0.00000001
 40
0.0
 40
0.0
 40
0.0
 40
0.0
 40
0.0077658581445814
 40
0.0225269853474467
 40
0.0372888014154451
 40
0.0520508699874874
 40
0.0668132349775336
 40
0.0815759276520636
 40
0.0963389685866968
 40
0.1111023694175635
 40
0.1258661343584224
 40
0.1406302615023929
 40
0.1553947439296717
 40
0.1701595706429685
 40
0.184924727351952
 40
0.1996901971265607
 40
0.214455960937415
 40
0.2292219980997387
 40
0.2439882866352641
 40
0.2587548035649031
 40
0.2735215251432482
 40
0.2882884270445072
 40
0.3030554845081837
 40
0.3178226724516127
 40
0.3325899655555533
 40
0.3473573383281804
 40
0.3621247651521285
 40
0.376892220318768
 40
0.3916596780534257
 40
0.406427104779472
 40
0.4211944738054149
 40
0.435961759281722
 40
0.4507289353786978
 40
0.4654959763190816
 40
0.4802628564230175
 40
0.4950295501693035
 40
0.5097960322776814
 40
0.5245622778173855
 40
0.5393282623480672
 40
0.5540939621001938
 40
0.5688593542031036
 40
0.5836244169702772
 40
0.5983891302528102
 40
0.6131534758737544
 40
0.6279174381578758
 40
0.6426810045731141
 40
0.657444166502132
 40
0.6722069201639835
 40
0.6869692677075079
 40
0.7017312184987761
 40
0.7164927906248605
 40
0.7312540126341371
 40
0.7460149255292174
 40
0.7607755850206934
 40
0.7755360640372955
 40
0.790296455469087
 40
0.8050568440368451
 40
0.8198173525438043
 40
0.8345781417237188
 40
0.8493394030667824
 40
0.8641013612267867
 40
0.8788642756593825
 40
0.8936284410513174
 40
0.9083941860020293
 40
0.9231618693327376
 40
0.9379318733472588
 40
0.9527045933843716
 40
0.9674804231213623
 40
0.982259735354086
 40
0.9970428584235208
 40
1.0
 40
1.0
 40
1.0
 40
1.0
 10
1210.316392119282
 20
-566.3042383022598
 30
0.0
 10
1210.310189173852
 20
-567.7510064388993
 30
0.0
 10
1210.292195842243
 20
-571.9477512169337
 30
0.0
 10
1210.092230039784
 20
-578.9911894056652
 30
0.0
 10
1209.643419880788
 20
-587.4665328569763
 30
0.0
 10
1208.969364679574
 20
-596.0526771648898
 30
0.0
 10
1208.074516318796
 20
-604.7388393748153
 30
0.0
 10
1206.958682621563
 20
-613.5171151428872
 30
0.0
 10
1205.623192268202
 20
-622.3787327034524
 30
0.0
 10
1204.069243209839
 20
-631.3150427969557
 30
0.0
 10
1202.298343835558
 20
-640.3172649870912
 30
0.0
 10
1200.312193008637
 20
-649.3765672224432
 30
0.0
 10
1198.112710125805
 20
-658.4840560992308
 30
0.0
 10
1195.7020246604
 20
-667.6307910421084
 30
0.0
 10
1193.082476263777
 20
-676.807792060171
 30
0.0
 10
1190.256611754155
 20
-686.0060492044719
 30
0.0
 10
1187.227182668886
 20
-695.2165315456705
 30
0.0
 10
1183.99714240603
 20
-704.4301962525175
 30
0.0
 10
1180.569643225604
 20
-713.6379976115711
 30
0.0
 10
1176.94803304621
 20
-722.8308960265445
 30
0.0
 10
1173.135852061445
 20
-731.9998669821845
 30
0.0
 10
1169.136829176038
 20
-741.1359099714446
 30
0.0
 10
1164.954878267642
 20
-750.2300573805176
 30
0.0
 10
1160.594094278238
 20
-759.2733833269826
 30
0.0
 10
1156.058749139392
 20
-768.2570124457288
 30
0.0
 10
1151.353287535325
 20
-777.1721286171171
 30
0.0
 10
1146.482322507746
 20
-786.0099836316508
 30
0.0
 10
1141.450630906423
 20
-794.7619057850987
 30
0.0
 10
1136.263149597233
 20
-803.419306882891
 30
0.0
 10
1130.924969928361
 20
-811.97369211143
 30
0.0
 10
1125.441332637581
 20
-820.4166685837848
 30
0.0
 10
1119.817621690737
 20
-828.7399550391108
 30
0.0
 10
1114.059359810315
 20
-836.935388638031
 30
0.0
 10
1108.172203181527
 20
-844.9949328493753
 30
0.0
 10
1102.161935928529
 20
-852.9106853884387
 30
0.0
 10
1096.034464466286
 20
-860.6748860373507
 30
0.0
 10
1089.795811731358
 20
-868.2799243416786
 30
0.0
 10
1083.452111294637
 20
-875.7183471775064
 30
0.0
 10
1077.009601358699
 20
-882.9828661832872
 30
0.0
 10
1070.47461864201
 20
-890.0663650508056
 30
0.0
 10
1063.853592151671
 20
-896.9619066695747
 30
0.0
 10
1057.1530368458
 20
-903.6627401188631
 30
0.0
 10
1050.379547185837
 20
-910.1623075013221
 30
0.0
 10
1043.539790578269
 20
-916.4542506117858
 30
0.0
 10
1036.64050070427
 20
-922.5324174341963
 30
0.0
 10
1029.688470734739
 20
-928.3908684587176
 30
0.0
 10
1022.690546427112
 20
-934.0238828098388
 30
0.0
 10
1015.653619099253
 20
-939.425964174601
 30
0.0
 10
1008.584618474746
 20
-944.5918465178194
 30
0.0
 10
1001.490505393137
 20
-949.516499568353
 30
0.0
 10
994.3782643783888
 20
-954.195134056827
 30
0.0
 10
987.25489605907
 20
-958.6232066808578
 30
0.0
 10
980.1274094352931
 20
-962.7964247684414
 30
0.0
 10
973.0028139899808
 20
-966.7107506043883
 30
0.0
 10
965.8881116477634
 20
-970.3624053766977
 30
0.0
 10
958.7902935671578
 20
-973.7478703227257
 30
0.0
 10
951.7163298033158
 20
-976.8638916505784
 30
0.0
 10
944.6731593245851
 20
-979.7074843017978
 30
0.0
 10
937.6676767578424
 20
-982.2759355586687
 30
0.0
 10
930.7067259009879
 20
-984.5668053758025
 30
0.0
 10
923.797093518057
 20
-986.5779248990793
 30
0.0
 10
916.9454991321849
 20
-988.3074013179964
 30
0.0
 10
910.1585951481752
 20
-989.7535979920202
 30
0.0
 10
903.4429306400496
 20
-990.9152031005841
 30
0.0
 10
896.8050540127952
 20
-991.7909642752061
 30
0.0
 10
890.2511016709086
 20
-992.3806669641716
 30
0.0
 10
883.7883109677169
 20
-992.6814678482328
 30
0.0
 10
877.4193562877431
 20
-992.7015674884882
 30
0.0
 10
871.1634854057621
 20
-992.409152785159
 30
0.0
 10
866.6276610923002
 20
-992.0526822035791
 30
0.0
 10
864.21584009069
 20
-991.7056653290828
 30
0.0
 10
863.8138113554237
 20
-991.6478207564232
 30
0.0
  0
SPLINE
  5
1DE
330
1F
100
AcDbEntity
  8
0
  6
Continuous
 62
     7
370
    25
100
AcDbSpline
210
0.0
220
0.0
230
1.0
 70
     8
 71
     3
 72
    93
 73
    89
 74
     0
 42
0.00000001
 43
0.00000001
 40
0.0
 40
0.0
 40
0.0
 40
0.0
 40
0.0093272429379105
 40
0.0210687914493984
 40
0.0328070857897595
 40
0.0445422698936296
 40
0.056274559509459
 40
0.0680042196911984
 40
0.079731544328133
 40
0.0914568387493207
 40
0.1031804058455842
 40
0.1149025357013537
 40
0.1266234984302685
 40
0.1383435397440097
 40
0.150062878723151
 40
0.1617817072691117
 40
0.1735001907690761
 40
0.1852184695791853
 40
0.1969366610096865
 40
0.2086548428071798
 40
0.2203730876107733
 40
0.23209146246309
 40
0.2438100196758966
 40
0.2555287988888743
 40
0.2672478289418347
 40
0.2789671295465952
 40
0.2906867127589507
 40
0.3024065842592903
 40
0.3141267444556784
 40
0.3258471894256646
 40
0.3375679117141221
 40
0.3492889010042368
 40
0.3610101446779236
 40
0.3727316282807489
 40
0.3844533359049579
 40
0.3961752505027501
 40
0.4078973541405306
 40
0.4196196282034055
 40
0.4313420535581273
 40
0.4430646106813675
 40
0.4547872797594644
 40
0.4665100407647936
 40
0.4782328735132555
 40
0.4899557577068488
 40
0.5016786729647573
 40
0.5134015988460393
 40
0.5251245115729676
 40
0.5368473871000351
 40
0.5485702049061689
 40
0.560292944477568
 40
0.572015585330178
 40
0.5837381070409104
 40
0.595460489290429
 40
0.6071827119209944
 40
0.6189047550133406
 40
0.6306265989871297
 40
0.6423482247302738
 40
0.654069613763283
 40
0.6657907484456455
 40
0.6775116122326099
 40
0.6892321899917241
 40
0.700952468390134
 40
0.7126724363649343
 40
0.7243920856904745
 40
0.7361114116580247
 40
0.7478304138844467
 40
0.7595490972674475
 40
0.7712674731052246
 40
0.7829855603974557
 40
0.794703387342036
 40
0.8064209930371155
 40
0.8181384293896605
 40
0.8298557632190084
 40
0.8415730683526172
 40
0.8532904219277613
 40
0.8650079419601794
 40
0.8767257699663342
 40
0.8884440730446995
 40
0.9001630454702885
 40
0.9118829094854478
 40
0.923603914891847
 40
0.9353263369740995
 40
0.9470504722306913
 40
0.9587766313746465
 40
0.970505129122964
 40
0.9822362704522133
 40
0.9939703332888072
 40
1.0
 40
1.0
 40
1.0
 40
1.0
 10
822.7146269529012
 20
-968.5053200588352
 30
0.0
 10
821.7299018597291
 20
-967.2196995870681
 30
0.0
 10
819.5055609948948
 20
-964.3156828499629
 30
0.0
 10
816.2691690736634
 20
-959.5038267285779
 30
0.0
 10
812.9687014351064
 20
-954.1293307048188
 30
0.0
 10
809.873084888642
 20
-948.5165649473715
 30
0.0
 10
806.9779519628493
 20
-942.6805047374806
 30
0.0
 10
804.2880160129151
 20
-936.6242711175947
 30
0.0
 10
801.8053207316025
 20
-930.3544115770462
 30
0.0
 10
799.5323879107841
 20
-923.8768068812044
 30
0.0
 10
797.471372879944
 20
-917.1977667665172
 30
0.0
 10
795.6242878735977
 20
-910.3237348040649
 30
0.0
 10
793.9929383087962
 20
-903.2613645810715
 30
0.0
 10
792.5789353638102
 20
-896.017495053842
 30
0.0
 10
791.3836878834684
 20
-888.599151567865
 30
0.0
 10
790.4083998901704
 20
-881.0135387631051
 30
0.0
 10
789.6540668850106
 20
-873.2680345692152
 30
0.0
 10
789.121472919156
 20
-865.370182998901
 30
0.0
 10
788.811188165158
 20
-857.3276908173292
 30
0.0
 10
788.7235661345983
 20
-849.148416746376
 30
0.0
 10
788.8587419023012
 20
-840.8403606022238
 30
0.0
 10
789.216631490965
 20
-832.4116500598886
 30
0.0
 10
789.7969316061672
 20
-823.8705348683872
 30
0.0
 10
790.599119298595
 20
-815.2253805718278
 30
0.0
 10
791.6224519892796
 20
-806.4846594960704
 30
0.0
 10
792.865967857872
 20
-797.6569416743689
 30
0.0
 10
794.3284865668143
 20
-788.7508857365575
 30
0.0
 10
796.0086102964498
 20
-779.7752297789579
 30
0.0
 10
797.904725068775
 20
-770.7387822271426
 30
0.0
 10
800.0150023403083
 20
-761.6504126999934
 30
0.0
 10
802.3374008472352
 20
-752.5190428810552
 30
0.0
 10
804.8696686884309
 20
-743.3536374015926
 30
0.0
 10
807.6093456341258
 20
-734.1631947388438
 30
0.0
 10
810.5537656498257
 20
-724.9567381325464
 30
0.0
 10
813.7000596266388
 20
-715.7433065227016
 30
0.0
 10
817.0451583104214
 20
-706.5319455116808
 30
0.0
 10
820.585795423157
 20
-697.3316983540512
 30
0.0
 10
824.3185109707838
 20
-688.151596977817
 30
0.0
 10
828.2396547322659
 20
-679.0006530411866
 30
0.0
 10
832.3453899251818
 20
-669.8878490293157
 30
0.0
 10
836.6316970433946
 20
-660.8221293958661
 30
0.0
 10
841.0943778626221
 20
-651.812391754527
 30
0.0
 10
845.7290596098427
 20
-642.8674781259402
 30
0.0
 10
850.531199292586
 20
-633.9961662456994
 30
0.0
 10
855.4960881841598
 20
-625.2071609393228
 30
0.0
 10
860.6188559812316
 20
-616.5090863846859
 30
0.0
 10
865.8944754744524
 20
-607.9104776465807
 30
0.0
 10
871.317767949066
 20
-599.4197713638665
 30
0.0
 10
876.8834088103152
 20
-591.0452966640783
 30
0.0
 10
882.5859329113307
 20
-582.7952669599847
 30
0.0
 10
888.419739364227
 20
-574.6777727183262
 30
0.0
 10
894.379097010642
 20
-566.7007734739824
 30
0.0
 10
900.4581500181506
 20
-558.8720899594405
 30
0.0
 10
906.6509235990927
 20
-551.1993963555896
 30
0.0
 10
912.951329848684
 20
-543.6902126696319
 30
0.0
 10
919.3531736995782
 20
-536.3518972458421
 30
0.0
 10
925.8501589904635
 20
-529.1916394148349
 30
0.0
 10
932.4358946467421
 20
-522.2164522870161
 30
0.0
 10
939.1039009719649
 20
-515.4331656959457
 30
0.0
 10
945.8476160493484
 20
-508.84841929754
 30
0.0
 10
952.660402253563
 20
-502.4686558313385
 30
0.0
 10
959.5355528738462
 20
-496.300114550601
 30
0.0
 10
966.4662988505358
 20
-490.3488248287605
 30
0.0
 10
973.4458156281719
 20
-484.6205999508473
 30
0.0
 10
980.4672301294248
 20
-479.1210310999997
 30
0.0
 10
987.5236278551349
 20
-473.8554815511602
 30
0.0
 10
994.6080601166221
 20
-468.8290810866484
 30
0.0
 10
1001.713551406959
 20
-464.0467206515706
 30
0.0
 10
1008.83310691789
 20
-459.5130472710968
 30
0.0
 10
1015.959720208155
 20
-455.2324592565736
 30
0.0
 10
1023.086381026934
 20
-451.209101733061
 30
0.0
 10
1030.206083291831
 20
-447.4468625280393
 30
0.0
 10
1037.311831159387
 20
-443.9493694778574
 30
0.0
 10
1044.396644039894
 20
-440.7199882539662
 30
0.0
 10
1051.453568906187
 20
-437.7618168980561
 30
0.0
 10
1058.475690696221
 20
-435.0776827784964
 30
0.0
 10
1065.456143951765
 20
-432.6701400673902
 30
0.0
 10
1072.388116949953
 20
-430.5414714533258
 30
0.0
 10
1079.264861149833
 20
-428.6936850472684
 30
0.0
 10
1086.079694572041
 20
-427.1285261194832
 30
0.0
 10
1092.826025986213
 20
-425.8474372476334
 30
0.0
 10
1099.497298631974
 20
-424.8517147233684
 30
0.0
 10
1106.087230395771
 20
-424.1419357209147
 30
0.0
 10
1112.588942268969
 20
-423.7201102343723
 30
0.0
 10
1118.998230660159
 20
-423.5816628026606
 30
0.0
 10
1125.301362869629
 20
-423.7453810779158
 30
0.0
 10
1130.512280894044
 20
-424.0773756370305
 30
0.0
 10
1133.575307097663
 20
-424.4650700794551
 30
0.0
 10
1134.615011461873
 20
-424.5966679101534
 30
0.0
  0
SPLINE
  5
1DF
330
1F
100
AcDbEntity
  8
0
  6
Continuous
 62
     7
370
    25
100
AcDbSpline
210
0.0
220
0.0
230
1.0
 70
     8
 71
     3
 72
    13
 73
     9
 74
     0
 42
0.00000001
 43
0.00000001
 40
0.0
 40
0.0
 40
0.0
 40
0.0
 40
0.1451954536214012
 40
0.3564335646209491
 40
0.560954770729804
 40
0.7605057691249989
 40
0.9464438471341416
 40
1.0
 40
1.0
 40
1.0
 40
1.0
 10
1197.800250591369
 20
-739.9107808699067
 30
0.0
 10
1198.016096763586
 20
-740.068046673387
 30
0.0
 10
1198.545967490623
 20
-740.4541111783653
 30
0.0
 10
1199.202925294012
 20
-741.3768271400697
 30
0.0
 10
1199.772274032862
 20
-742.6181825050708
 30
0.0
 10
1200.123579139153
 20
-744.0475665637391
 30
0.0
 10
1200.244413797009
 20
-745.2450810660711
 30
0.0
 10
1200.251688616856
 20
-745.9401955820257
 30
0.0
 10
1200.253315425829
 20
-746.09563840476
 30
0.0
  0
SPLINE
  5
1E0
330
1F
100
AcDbEntity
  8
0
  6
Continuous
 62
     7
370
    25
100
AcDbSpline
210
0.0
220
0.0
230
1.0
 70
     8
 71
     3
 72
    24
 73
    20
 74
     0
 42
0.00000001
 43
0.00000001
 40
0.0
 40
0.0
 40
0.0
 40
0.0
 40
0.0317280596900362
 40
0.0925115510741394
 40
0.1534387045847524
 40
0.2144889895653154
 40
0.2756453849585588
 40
0.3368712853027874
 40
0.3981230335369279
 40
0.4593474098557296
 40
0.5204890863149425
 40
0.5815017374964173
 40
0.642344716723824
 40
0.7029964544315495
 40
0.763485517208289
 40
0.8239286581870991
 40
0.8845697692573498
 40
0.9459919089783633
 40
1.0
 40
1.0
 40
1.0
 40
1.0
 10
1200.253315425829
 20
-746.09563840476
 30
0.0
 10
1200.247527114446
 20
-746.3996178525722
 30
0.0
 10
1200.230649761419
 20
-747.2859503445837
 30
0.0
 10
1200.040642687606
 20
-748.852685158058
 30
0.0
 10
1199.613151038727
 20
-750.7910089016119
 30
0.0
 10
1198.977101962982
 20
-752.7730515825629
 30
0.0
 10
1198.147995754601
 20
-754.7528694404564
 30
0.0
 10
1197.141594117952
 20
-756.6880999377636
 30
0.0
 10
1195.979493051965
 20
-758.5363366240501
 30
0.0
 10
1194.687090959837
 20
-760.2573954176091
 30
0.0
 10
1193.29343707049
 20
-761.8141192134439
 30
0.0
 10
1191.830459395348
 20
-763.1735280708666
 30
0.0
 10
1190.332343382754
 20
-764.3077333136042
 30
0.0
 10
1188.834555633226
 20
-765.195237797219
 30
0.0
 10
1187.373204910616
 20
-765.821085274086
 30
0.0
 10
1185.981375942067
 20
-766.1811544239455
 30
0.0
 10
1184.692567171836
 20
-766.2696077199175
 30
0.0
 10
1183.564954604078
 20
-766.1310911104562
 30
0.0
 10
1182.941644415395
 20
-765.8449790453294
 30
0.0
 10
1182.650006833207
 20
-765.7111114583348
 30
0.0
  0
SPLINE
  5
1E1
330
1F
100
AcDbEntity
  8
0
  6
Continuous
 62
     7
370
    25
100
AcDbSpline
210
0.0
220
0.0
230
1.0
 70
     8
 71
     3
 72
    13
 73
     9
 74
     0
 42
0.00000001
 43
0.00000001
 40
0.0
 40
0.0
 40
0.0
 40
0.0
 40
0.1451954536213806
 40
0.3564335646209133
 40
0.5609547707297703
 40
0.7605057691249959
 40
0.9464438471341505
 40
1.0
 40
1.0
 40
1.0
 40
1.0
 10
1141.092757014271
 20
-838.1310406270499
 30
0.0
 10
1141.308603186488
 20
-838.2883064305302
 30
0.0
 10
1141.838473913524
 20
-838.6743709355085
 30
0.0
 10
1142.495431716914
 20
-839.5970868972128
 30
0.0
 10
1143.064780455764
 20
-840.8384422622139
 30
0.0
 10
1143.416085562055
 20
-842.2678263208824
 30
0.0
 10
1143.536920219911
 20
-843.4653408232144
 30
0.0
 10
1143.544195039758
 20
-844.1604553391692
 30
0.0
 10
1143.545821848732
 20
-844.3158981619033
 30
0.0
  0
SPLINE
  5
1E2
330
1F
100
AcDbEntity
  8
0
  6
Continuous
 62
     7
370
    25
100
AcDbSpline
210
0.0
220
0.0
230
1.0
 70
     8
 71
     3
 72
    24
 73
    20
 74
     0
 42
0.00000001
 43
0.00000001
 40
0.0
 40
0.0
 40
0.0
 40
0.0
 40
0.0317280596900364
 40
0.0925115510741212
 40
0.1534387045847302
 40
0.2144889895653085
 40
0.2756453849585475
 40
0.3368712853027684
 40
0.3981230335369121
 40
0.4593474098557221
 40
0.5204890863149236
 40
0.5815017374963992
 40
0.642344716723803
 40
0.7029964544315227
 40
0.7634855172082619
 40
0.8239286581870802
 40
0.8845697692573118
 40
0.9459919089783273
 40
1.0
 40
1.0
 40
1.0
 40
1.0
 10
1143.545821848732
 20
-844.3158981619033
 30
0.0
 10
1143.540033537348
 20
-844.6198776097154
 30
0.0
 10
1143.523156184321
 20
-845.506210101727
 30
0.0
 10
1143.333149110508
 20
-847.0729449152008
 30
0.0
 10
1142.905657461629
 20
-849.0112686587547
 30
0.0
 10
1142.269608385884
 20
-850.9933113397057
 30
0.0
 10
1141.440502177503
 20
-852.9731291975993
 30
0.0
 10
1140.434100540854
 20
-854.9083596949064
 30
0.0
 10
1139.271999474867
 20
-856.756596381193
 30
0.0
 10
1137.979597382739
 20
-858.4776551747522
 30
0.0
 10
1136.585943493392
 20
-860.0343789705869
 30
0.0
 10
1135.122965818251
 20
-861.3937878280094
 30
0.0
 10
1133.624849805656
 20
-862.5279930707472
 30
0.0
 10
1132.127062056129
 20
-863.415497554362
 30
0.0
 10
1130.665711333519
 20
-864.0413450312294
 30
0.0
 10
1129.273882364969
 20
-864.4014141810887
 30
0.0
 10
1127.985073594739
 20
-864.4898674770608
 30
0.0
 10
1126.857461026981
 20
-864.3513508675998
 30
0.0
 10
1126.234150838297
 20
-864.065238802473
 30
0.0
 10
1125.942513256109
 20
-863.9313712154784
 30
0.0
  0
SPLINE
  5
1E3
330
1F
100
AcDbEntity
  8
0
  6
Continuous
 62
     7
370
    25
100
AcDbSpline
210
0.0
220
0.0
230
1.0
 70
     8
 71
     3
 72
    13
 73
     9
 74
     0
 42
0.00000001
 43
0.00000001
 40
0.0
 40
0.0
 40
0.0
 40
0.0
 40
0.1451954536213985
 40
0.3564335646209652
 40
0.5609547707298448
 40
0.7605057691251013
 40
0.9464438471342979
 40
1.0
 40
1.0
 40
1.0
 40
1.0
 10
1234.208702656906
 20
-636.3783272540242
 30
0.0
 10
1234.424548829123
 20
-636.5355930575045
 30
0.0
 10
1234.954419556159
 20
-636.921657562483
 30
0.0
 10
1235.611377359548
 20
-637.8443735241874
 30
0.0
 10
1236.180726098398
 20
-639.0857288891887
 30
0.0
 10
1236.532031204689
 20
-640.5151129478573
 30
0.0
 10
1236.652865862545
 20
-641.7126274501891
 30
0.0
 10
1236.660140682392
 20
-642.4077419661436
 30
0.0
 10
1236.661767491365
 20
-642.5631847888772
 30
0.0
  0
SPLINE
  5
1E4
330
1F
100
AcDbEntity
  8
0
  6
Continuous
 62
     7
370
    25
100
AcDbSpline
210
0.0
220
0.0
230
1.0
 70
     8
 71
     3
 72
    24
 73
    20
 74
     0
 42
0.00000001
 43
0.00000001
 40
0.0
 40
0.0
 40
0.0
 40
0.0
 40
0.0317280596900361
 40
0.0925115510741388
 40
0.1534387045847522
 40
0.2144889895653159
 40
0.2756453849585707
 40
0.3368712853027866
 40
0.3981230335369288
 40
0.4593474098557354
 40
0.5204890863149514
 40
0.5815017374964161
 40
0.6423447167238305
 40
0.7029964544315467
 40
0.7634855172082893
 40
0.8239286581870975
 40
0.8845697692573484
 40
0.9459919089783563
 40
1.0
 40
1.0
 40
1.0
 40
1.0
 10
1236.661767491365
 20
-642.5631847888772
 30
0.0
 10
1236.655979179982
 20
-642.8671642366893
 30
0.0
 10
1236.639101826956
 20
-643.753496728701
 30
0.0
 10
1236.449094753142
 20
-645.3202315421751
 30
0.0
 10
1236.021603104263
 20
-647.258555285729
 30
0.0
 10
1235.385554028518
 20
-649.2405979666801
 30
0.0
 10
1234.556447820137
 20
-651.2204158245737
 30
0.0
 10
1233.550046183488
 20
-653.1556463218809
 30
0.0
 10
1232.387945117501
 20
-655.0038830081675
 30
0.0
 10
1231.095543025373
 20
-656.7249418017266
 30
0.0
 10
1229.701889136026
 20
-658.2816655975612
 30
0.0
 10
1228.238911460885
 20
-659.6410744549839
 30
0.0
 10
1226.74079544829
 20
-660.7752796977215
 30
0.0
 10
1225.243007698762
 20
-661.6627841813363
 30
0.0
 10
1223.781656976152
 20
-662.2886316582033
 30
0.0
 10
1222.389828007603
 20
-662.6487008080628
 30
0.0
 10
1221.101019237372
 20
-662.7371541040346
 30
0.0
 10
1219.973406669614
 20
-662.5986374945734
 30
0.0
 10
1219.350096480931
 20
-662.3125254294466
 30
0.0
 10
1219.058458898744
 20
-662.1786578424521
 30
0.0
  0
SPLINE
  5
1E5
330
1F
100
AcDbEntity
  8
0
  6
Continuous
 62
     7
370
    25
100
AcDbSpline
210
0.0
220
0.0
230
1.0
 70
     8
 71
     3
 72
    13
 73
     9
 74
     0
 42
0.00000001
 43
0.00000001
 40
0.0
 40
0.0
 40
0.0
 40
0.0
 40
0.1451954536213473
 40
0.3564335646208798
 40
0.560954770729712
 40
0.7605057691249285
 40
0.946443847134073
 40
1.0
 40
1.0
 40
1.0
 40
1.0
 10
1069.637146501278
 20
-921.4246231596348
 30
0.0
 10
1069.852992673494
 20
-921.5818889631151
 30
0.0
 10
1070.382863400531
 20
-921.9679534680931
 30
0.0
 10
1071.03982120392
 20
-922.8906694297975
 30
0.0
 10
1071.60916994277
 20
-924.1320247947984
 30
0.0
 10
1071.960475049062
 20
-925.5614088534667
 30
0.0
 10
1072.081309706917
 20
-926.758923355799
 30
0.0
 10
1072.088584526765
 20
-927.4540378717542
 30
0.0
 10
1072.090211335739
 20
-927.6094806944883
 30
0.0
  0
SPLINE
  5
1E6
330
1F
100
AcDbEntity
  8
0
  6
Continuous
 62
     7
370
    25
100
AcDbSpline
210
0.0
220
0.0
230
1.0
 70
     8
 71
     3
 72
    24
 73
    20
 74
     0
 42
0.00000001
 43
0.00000001
 40
0.0
 40
0.0
 40
0.0
 40
0.0
 40
0.0317280596900364
 40
0.092511551074121
 40
0.1534387045847299
 40
0.214488989565308
 40
0.2756453849585467
 40
0.336871285302768
 40
0.3981230335369091
 40
0.4593474098557155
 40
0.5204890863149269
 40
0.5815017374963987
 40
0.6423447167238081
 40
0.7029964544315241
 40
0.763485517208271
 40
0.8239286581870837
 40
0.8845697692573337
 40
0.9459919089783534
 40
1.0
 40
1.0
 40
1.0
 40
1.0
 10
1072.090211335739
 20
-927.6094806944884
 30
0.0
 10
1072.084423024354
 20
-927.9134601423004
 30
0.0
 10
1072.067545671328
 20
-928.7997926343119
 30
0.0
 10
1071.877538597515
 20
-930.3665274477858
 30
0.0
 10
1071.450046948636
 20
-932.3048511913398
 30
0.0
 10
1070.813997872891
 20
-934.2868938722905
 30
0.0
 10
1069.98489166451
 20
-936.2667117301843
 30
0.0
 10
1068.978490027861
 20
-938.2019422274914
 30
0.0
 10
1067.816388961874
 20
-940.0501789137779
 30
0.0
 10
1066.523986869746
 20
-941.771237707337
 30
0.0
 10
1065.130332980399
 20
-943.3279615031719
 30
0.0
 10
1063.667355305258
 20
-944.6873703605946
 30
0.0
 10
1062.169239292663
 20
-945.8215756033322
 30
0.0
 10
1060.671451543135
 20
-946.7090800869471
 30
0.0
 10
1059.210100820525
 20
-947.3349275638143
 30
0.0
 10
1057.818271851976
 20
-947.6949967136738
 30
0.0
 10
1056.529463081745
 20
-947.7834500096458
 30
0.0
 10
1055.401850513987
 20
-947.6449334001848
 30
0.0
 10
1054.778540325304
 20
-947.358821335058
 30
0.0
 10
1054.486902743116
 20
-947.2249537480634
 30
0.0
  0
SPLINE
  5
1E7
330
1F
100
AcDbEntity
  8
0
  6
Continuous
 62
     7
370
    25
100
AcDbSpline
210
0.0
220
0.0
230
1.0
 70
     8
 71
     3
 72
    13
 73
     9
 74
     0
 42
0.00000001
 43
0.00000001
 40
0.0
 40
0.0
 40
0.0
 40
0.0
 40
0.145195453621386
 40
0.3564335646208791
 40
0.560954770729758
 40
0.7605057691249406
 40
0.9464438471340847
 40
1.0
 40
1.0
 40
1.0
 40
1.0
 10
1246.754200250103
 20
-537.6681576923451
 30
0.0
 10
1246.970046422319
 20
-537.8254234958252
 30
0.0
 10
1247.499917149356
 20
-538.2114880008036
 30
0.0
 10
1248.156874952746
 20
-539.1342039625079
 30
0.0
 10
1248.726223691596
 20
-540.3755593275087
 30
0.0
 10
1249.077528797887
 20
-541.8049433861772
 30
0.0
 10
1249.198363455743
 20
-543.0024578885093
 30
0.0
 10
1249.20563827559
 20
-543.6975724044643
 30
0.0
 10
1249.207265084564
 20
-543.8530152271986
 30
0.0
  0
SPLINE
  5
1E8
330
1F
100
AcDbEntity
  8
0
  6
Continuous
 62
     7
370
    25
100
AcDbSpline
210
0.0
220
0.0
230
1.0
 70
     8
 71
     3
 72
    24
 73
    20
 74
     0
 42
0.00000001
 43
0.00000001
 40
0.0
 40
0.0
 40
0.0
 40
0.0
 40
0.0317280596900362
 40
0.092511551074139
 40
0.1534387045847525
 40
0.2144889895653161
 40
0.2756453849585593
 40
0.3368712853027893
 40
0.3981230335369214
 40
0.4593474098557225
 40
0.5204890863149343
 40
0.5815017374964017
 40
0.6423447167238102
 40
0.7029964544315327
 40
0.7634855172082734
 40
0.8239286581870847
 40
0.8845697692573273
 40
0.945991908978341
 40
1.0
 40
1.0
 40
1.0
 40
1.0
 10
1249.207265084564
 20
-543.8530152271986
 30
0.0
 10
1249.20147677318
 20
-544.1569946750108
 30
0.0
 10
1249.184599420153
 20
-545.0433271670225
 30
0.0
 10
1248.99459234634
 20
-546.6100619804965
 30
0.0
 10
1248.567100697461
 20
-548.5483857240506
 30
0.0
 10
1247.931051621716
 20
-550.5304284050014
 30
0.0
 10
1247.101945413335
 20
-552.510246262895
 30
0.0
 10
1246.095543776686
 20
-554.4454767602022
 30
0.0
 10
1244.933442710699
 20
-556.2937134464887
 30
0.0
 10
1243.641040618571
 20
-558.0147722400477
 30
0.0
 10
1242.247386729224
 20
-559.5714960358823
 30
0.0
 10
1240.784409054083
 20
-560.930904893305
 30
0.0
 10
1239.286293041488
 20
-562.0651101360427
 30
0.0
 10
1237.78850529196
 20
-562.9526146196574
 30
0.0
 10
1236.327154569351
 20
-563.5784620965247
 30
0.0
 10
1234.935325600801
 20
-563.9385312463841
 30
0.0
 10
1233.646516830571
 20
-564.026984542356
 30
0.0
 10
1232.518904262813
 20
-563.8884679328949
 30
0.0
 10
1231.895594074129
 20
-563.6023558677682
 30
0.0
 10
1231.603956491942
 20
-563.4684882807736
 30
0.0
  0
SPLINE
  5
1E9
330
1F
100
AcDbEntity
  8
0
  6
Continuous
 62
     7
370
    25
100
AcDbSpline
210
0.0
220
0.0
230
1.0
 70
     8
 71
     3
 72
    13
 73
     9
 74
     0
 42
0.00000001
 43
0.00000001
 40
0.0
 40
0.0
 40
0.0
 40
0.0
 40
0.1451954536213605
 40
0.3564335646208801
 40
0.5609547707297435
 40
0.7605057691249402
 40
0.9464438471340773
 40
1.0
 40
1.0
 40
1.0
 40
1.0
 10
990.4279920699148
 20
-981.6381722688578
 30
0.0
 10
990.6438382421311
 20
-981.7954380723381
 30
0.0
 10
991.173708969168
 20
-982.1815025773163
 30
0.0
 10
991.830666772557
 20
-983.1042185390204
 30
0.0
 10
992.4000155114074
 20
-984.3455739040215
 30
0.0
 10
992.7513206176986
 20
-985.77495796269
 30
0.0
 10
992.8721552755544
 20
-986.9724724650217
 30
0.0
 10
992.879430095402
 20
-987.6675869809771
 30
0.0
 10
992.8810569043752
 20
-987.8230298037114
 30
0.0
  0
SPLINE
  5
1EA
330
1F
100
AcDbEntity
  8
0
  6
Continuous
 62
     7
370
    25
100
AcDbSpline
210
0.0
220
0.0
230
1.0
 70
     8
 71
     3
 72
    24
 73
    20
 74
     0
 42
0.00000001
 43
0.00000001
 40
0.0
 40
0.0
 40
0.0
 40
0.0
 40
0.0317280596900369
 40
0.0925115510741145
 40
0.1534387045847257
 40
0.2144889895652994
 40
0.2756453849585374
 40
0.3368712853027623
 40
0.3981230335369056
 40
0.4593474098557077
 40
0.5204890863149284
 40
0.5815017374963991
 40
0.6423447167237969
 40
0.7029964544315329
 40
0.7634855172082674
 40
0.8239286581870899
 40
0.8845697692573279
 40
0.9459919089783365
 40
1.0
 40
1.0
 40
1.0
 40
1.0
 10
992.8810569043752
 20
-987.8230298037114
 30
0.0
 10
992.8752685929912
 20
-988.1270092515235
 30
0.0
 10
992.858391239965
 20
-989.0133417435347
 30
0.0
 10
992.6683841661517
 20
-990.5800765570087
 30
0.0
 10
992.2408925172731
 20
-992.5184003005625
 30
0.0
 10
991.604843441528
 20
-994.5004429815134
 30
0.0
 10
990.7757372331474
 20
-996.4802608394069
 30
0.0
 10
989.769335596498
 20
-998.415491336714
 30
0.0
 10
988.6072345305109
 20
-1000.263728023001
 30
0.0
 10
987.3148324383832
 20
-1001.98478681656
 30
0.0
 10
985.9211785490361
 20
-1003.541510612394
 30
0.0
 10
984.4582008738951
 20
-1004.900919469817
 30
0.0
 10
982.9600848613002
 20
-1006.035124712555
 30
0.0
 10
981.4622971117726
 20
-1006.92262919617
 30
0.0
 10
980.0009463891626
 20
-1007.548476673037
 30
0.0
 10
978.609117420613
 20
-1007.908545822897
 30
0.0
 10
977.3203086503827
 20
-1007.996999118869
 30
0.0
 10
976.1926960826246
 20
-1007.858482509408
 30
0.0
 10
975.569385893941
 20
-1007.572370444281
 30
0.0
 10
975.2777483117534
 20
-1007.438502857286
 30
0.0
  0
SPLINE
  5
1EB
330
1F
100
AcDbEntity
  8
0
  6
Continuous
 62
     7
370
    25
100
AcDbSpline
210
0.0
220
0.0
230
1.0
 70
     8
 71
     3
 72
    13
 73
     9
 74
     0
 42
0.00000001
 43
0.00000001
 40
0.0
 40
0.0
 40
0.0
 40
0.0
 40
0.1451954536213879
 40
0.3564335646208912
 40
0.5609547707297436
 40
0.7605057691249727
 40
0.9464438471341345
 40
1.0
 40
1.0
 40
1.0
 40
1.0
 10
1234.208702656919
 20
-453.4427113357601
 30
0.0
 10
1234.424548829135
 20
-453.5999771392403
 30
0.0
 10
1234.954419556172
 20
-453.9860416442186
 30
0.0
 10
1235.611377359561
 20
-454.9087576059226
 30
0.0
 10
1236.180726098412
 20
-456.1501129709238
 30
0.0
 10
1236.532031204703
 20
-457.5794970295923
 30
0.0
 10
1236.652865862559
 20
-458.7770115319244
 30
0.0
 10
1236.660140682406
 20
-459.4721260478793
 30
0.0
 10
1236.661767491379
 20
-459.6275688706134
 30
0.0
  0
SPLINE
  5
1EC
330
1F
100
AcDbEntity
  8
0
  6
Continuous
 62
     7
370
    25
100
AcDbSpline
210
0.0
220
0.0
230
1.0
 70
     8
 71
     3
 72
    24
 73
    20
 74
     0
 42
0.00000001
 43
0.00000001
 40
0.0
 40
0.0
 40
0.0
 40
0.0
 40
0.031728059690036
 40
0.0925115510741386
 40
0.1534387045847518
 40
0.2144889895653153
 40
0.2756453849585699
 40
0.3368712853027857
 40
0.3981230335369277
 40
0.459347409855734
 40
0.5204890863149529
 40
0.5815017374964208
 40
0.6423447167238286
 40
0.7029964544315492
 40
0.7634855172082917
 40
0.8239286581871054
 40
0.8845697692573492
 40
0.9459919089783632
 40
1.0
 40
1.0
 40
1.0
 40
1.0
 10
1236.661767491379
 20
-459.6275688706135
 30
0.0
 10
1236.655979179995
 20
-459.9315483184257
 30
0.0
 10
1236.639101826969
 20
-460.8178808104372
 30
0.0
 10
1236.449094753156
 20
-462.3846156239112
 30
0.0
 10
1236.021603104277
 20
-464.3229393674654
 30
0.0
 10
1235.385554028532
 20
-466.3049820484164
 30
0.0
 10
1234.556447820151
 20
-468.2847999063099
 30
0.0
 10
1233.550046183501
 20
-470.2200304036172
 30
0.0
 10
1232.387945117514
 20
-472.0682670899038
 30
0.0
 10
1231.095543025386
 20
-473.7893258834629
 30
0.0
 10
1229.701889136039
 20
-475.3460496792975
 30
0.0
 10
1228.238911460898
 20
-476.7054585367204
 30
0.0
 10
1226.740795448303
 20
-477.8396637794577
 30
0.0
 10
1225.243007698776
 20
-478.7271682630726
 30
0.0
 10
1223.781656976166
 20
-479.3530157399397
 30
0.0
 10
1222.389828007616
 20
-479.7130848897991
 30
0.0
 10
1221.101019237386
 20
-479.8015381857709
 30
0.0
 10
1219.973406669628
 20
-479.6630215763097
 30
0.0
 10
1219.350096480945
 20
-479.3769095111829
 30
0.0
 10
1219.058458898757
 20
-479.2430419241883
 30
0.0
  0
SPLINE
  5
1ED
330
1F
100
AcDbEntity
  8
0
  6
Continuous
 62
     7
370
    25
100
AcDbSpline
210
0.0
220
0.0
230
1.0
 70
     8
 71
     3
 72
    13
 73
     9
 74
     0
 42
0.00000001
 43
0.00000001
 40
0.0
 40
0.0
 40
0.0
 40
0.0
 40
0.1451954536213521
 40
0.3564335646208631
 40
0.5609547707297187
 40
0.7605057691249173
 40
0.9464438471340515
 40
1.0
 40
1.0
 40
1.0
 40
1.0
 10
911.218837638554
 20
-1012.877566235442
 30
0.0
 10
911.4346838107703
 20
-1013.034832038922
 30
0.0
 10
911.964554537807
 20
-1013.420896543901
 30
0.0
 10
912.6215123411961
 20
-1014.343612505605
 30
0.0
 10
913.1908610800465
 20
-1015.584967870606
 30
0.0
 10
913.5421661863377
 20
-1017.014351929274
 30
0.0
 10
913.6630008441933
 20
-1018.211866431606
 30
0.0
 10
913.670275664041
 20
-1018.906980947561
 30
0.0
 10
913.6719024730143
 20
-1019.062423770296
 30
0.0
  0
SPLINE
  5
1EE
330
1F
100
AcDbEntity
  8
0
  6
Continuous
 62
     7
370
    25
100
AcDbSpline
210
0.0
220
0.0
230
1.0
 70
     8
 71
     3
 72
    24
 73
    20
 74
     0
 42
0.00000001
 43
0.00000001
 40
0.0
 40
0.0
 40
0.0
 40
0.0
 40
0.0317280596900365
 40
0.0925115510741215
 40
0.1534387045847291
 40
0.2144889895653025
 40
0.27564538495854
 40
0.3368712853027714
 40
0.3981230335369089
 40
0.4593474098557236
 40
0.5204890863149437
 40
0.5815017374964119
 40
0.6423447167238303
 40
0.7029964544315336
 40
0.7634855172082887
 40
0.8239286581871099
 40
0.8845697692573458
 40
0.9459919089783639
 40
0.9999999999999999
 40
0.9999999999999999
 40
0.9999999999999999
 40
0.9999999999999999
 10
913.6719024730143
 20
-1019.062423770296
 30
0.0
 10
913.6661141616304
 20
-1019.366403218108
 30
0.0
 10
913.649236808604
 20
-1020.252735710119
 30
0.0
 10
913.4592297347907
 20
-1021.819470523593
 30
0.0
 10
913.0317380859121
 20
-1023.757794267147
 30
0.0
 10
912.395689010167
 20
-1025.739836948098
 30
0.0
 10
911.5665828017862
 20
-1027.719654805991
 30
0.0
 10
910.5601811651368
 20
-1029.654885303298
 30
0.0
 10
909.3980800991495
 20
-1031.503121989586
 30
0.0
 10
908.1056780070218
 20
-1033.224180783145
 30
0.0
 10
906.7120241176746
 20
-1034.78090457898
 30
0.0
 10
905.2490464425333
 20
-1036.140313436402
 30
0.0
 10
903.7509304299386
 20
-1037.27451867914
 30
0.0
 10
902.2531426804109
 20
-1038.162023162755
 30
0.0
 10
900.7917919578011
 20
-1038.787870639622
 30
0.0
 10
899.3999629892514
 20
-1039.147939789481
 30
0.0
 10
898.111154219021
 20
-1039.236393085453
 30
0.0
 10
896.9835416512631
 20
-1039.097876475992
 30
0.0
 10
896.3602314625798
 20
-1038.811764410865
 30
0.0
 10
896.0685938803923
 20
-1038.677896823871
 30
0.0
  0
SPLINE
  5
1EF
330
1F
100
AcDbEntity
  8
0
  6
Continuous
 62
     7
370
    25
100
AcDbSpline
210
0.0
220
0.0
230
1.0
 70
     8
 71
     3
 72
    13
 73
     9
 74
     0
 42
0.00000001
 43
0.00000001
 40
0.0
 40
0.0
 40
0.0
 40
0.0
 40
0.1451954536214012
 40
0.3564335646209491
 40
0.560954770729804
 40
0.7605057691249989
 40
0.9464438471341416
 40
1.0
 40
1.0
 40
1.0
 40
1.0
 10
1197.800250591396
 20
-391.9465617068424
 30
0.0
 10
1198.016096763612
 20
-392.1038275103227
 30
0.0
 10
1198.545967490649
 20
-392.4898920153011
 30
0.0
 10
1199.202925294038
 20
-393.4126079770053
 30
0.0
 10
1199.772274032888
 20
-394.6539633420064
 30
0.0
 10
1200.123579139179
 20
-396.083347400675
 30
0.0
 10
1200.244413797035
 20
-397.2808619030064
 30
0.0
 10
1200.251688616882
 20
-397.9759764189615
 30
0.0
 10
1200.253315425855
 20
-398.1314192416957
 30
0.0
  0
SPLINE
  5
1F0
330
1F
100
AcDbEntity
  8
0
  6
Continuous
 62
     7
370
    25
100
AcDbSpline
210
0.0
220
0.0
230
1.0
 70
     8
 71
     3
 72
    24
 73
    20
 74
     0
 42
0.00000001
 43
0.00000001
 40
0.0
 40
0.0
 40
0.0
 40
0.0
 40
0.0317280596900362
 40
0.0925115510741394
 40
0.1534387045847524
 40
0.2144889895653154
 40
0.2756453849585588
 40
0.3368712853027874
 40
0.3981230335369279
 40
0.4593474098557296
 40
0.5204890863149425
 40
0.5815017374964173
 40
0.642344716723824
 40
0.7029964544315495
 40
0.763485517208289
 40
0.8239286581870991
 40
0.8845697692573498
 40
0.9459919089783633
 40
1.0
 40
1.0
 40
1.0
 40
1.0
 10
1200.253315425855
 20
-398.1314192416957
 30
0.0
 10
1200.247527114471
 20
-398.4353986895079
 30
0.0
 10
1200.230649761445
 20
-399.3217311815194
 30
0.0
 10
1200.040642687632
 20
-400.8884659949936
 30
0.0
 10
1199.613151038753
 20
-402.8267897385475
 30
0.0
 10
1198.977101963008
 20
-404.8088324194986
 30
0.0
 10
1198.147995754627
 20
-406.788650277392
 30
0.0
 10
1197.141594117978
 20
-408.7238807746992
 30
0.0
 10
1195.979493051991
 20
-410.5721174609859
 30
0.0
 10
1194.687090959863
 20
-412.2931762545448
 30
0.0
 10
1193.293437070516
 20
-413.8499000503795
 30
0.0
 10
1191.830459395375
 20
-415.2093089078024
 30
0.0
 10
1190.33234338278
 20
-416.34351415054
 30
0.0
 10
1188.834555633252
 20
-417.2310186341546
 30
0.0
 10
1187.373204910642
 20
-417.8568661110219
 30
0.0
 10
1185.981375942092
 20
-418.2169352608811
 30
0.0
 10
1184.692567171862
 20
-418.3053885568533
 30
0.0
 10
1183.564954604104
 20
-418.166871947392
 30
0.0
 10
1182.941644415421
 20
-417.8807598822652
 30
0.0
 10
1182.650006833233
 20
-417.7468922952706
 30
0.0
  0
SPLINE
  5
1F1
330
1F
100
AcDbEntity
  8
0
  6
Continuous
 62
     7
370
    25
100
AcDbSpline
210
0.0
220
0.0
230
1.0
 70
     8
 71
     3
 72
    13
 73
     9
 74
     0
 42
0.00000001
 43
0.00000001
 40
0.0
 40
0.0
 40
0.0
 40
0.0
 40
0.1451954536213792
 40
0.3564335646209122
 40
0.5609547707297696
 40
0.7605057691249955
 40
0.9464438471341504
 40
1.0
 40
1.0
 40
1.0
 40
1.0
 10
839.7632271255673
 20
-1012.084875520283
 30
0.0
 10
839.9790732977834
 20
-1012.242141323763
 30
0.0
 10
840.5089440248204
 20
-1012.628205828741
 30
0.0
 10
841.1659018282094
 20
-1013.550921790446
 30
0.0
 10
841.7352505670598
 20
-1014.792277155447
 30
0.0
 10
842.0865556733509
 20
-1016.221661214115
 30
0.0
 10
842.2073903312066
 20
-1017.419175716447
 30
0.0
 10
842.2146651510542
 20
-1018.114290232402
 30
0.0
 10
842.2162919600273
 20
-1018.269733055136
 30
0.0
  0
SPLINE
  5
1F2
330
1F
100
AcDbEntity
  8
0
  6
Continuous
 62
     7
370
    25
100
AcDbSpline
210
0.0
220
0.0
230
1.0
 70
     8
 71
     3
 72
    24
 73
    20
 74
     0
 42
0.00000001
 43
0.00000001
 40
0.0
 40
0.0
 40
0.0
 40
0.0
 40
0.0317280596900364
 40
0.0925115510741212
 40
0.1534387045847302
 40
0.2144889895653085
 40
0.2756453849585475
 40
0.3368712853027684
 40
0.3981230335369121
 40
0.4593474098557221
 40
0.5204890863149236
 40
0.5815017374963992
 40
0.642344716723803
 40
0.7029964544315227
 40
0.7634855172082619
 40
0.8239286581870802
 40
0.8845697692573118
 40
0.9459919089783273
 40
1.0
 40
1.0
 40
1.0
 40
1.0
 10
842.2162919600273
 20
-1018.269733055136
 30
0.0
 10
842.2105036486433
 20
-1018.573712502948
 30
0.0
 10
842.1936262956173
 20
-1019.46004499496
 30
0.0
 10
842.0036192218038
 20
-1021.026779808434
 30
0.0
 10
841.5761275729252
 20
-1022.965103551988
 30
0.0
 10
840.9400784971801
 20
-1024.947146232938
 30
0.0
 10
840.1109722887994
 20
-1026.926964090832
 30
0.0
 10
839.1045706521498
 20
-1028.862194588139
 30
0.0
 10
837.9424695861628
 20
-1030.710431274426
 30
0.0
 10
836.650067494035
 20
-1032.431490067985
 30
0.0
 10
835.2564136046879
 20
-1033.98821386382
 30
0.0
 10
833.793435929547
 20
-1035.347622721242
 30
0.0
 10
832.2953199169522
 20
-1036.48182796398
 30
0.0
 10
830.7975321674246
 20
-1037.369332447595
 30
0.0
 10
829.3361814448147
 20
-1037.995179924462
 30
0.0
 10
827.9443524762652
 20
-1038.355249074322
 30
0.0
 10
826.6555437060348
 20
-1038.443702370294
 30
0.0
 10
825.5279311382766
 20
-1038.305185760833
 30
0.0
 10
824.9046209495931
 20
-1038.019073695706
 30
0.0
 10
824.6129833674054
 20
-1037.885206108711
 30
0.0
  0
SPLINE
  5
1F3
330
1F
100
AcDbEntity
  8
0
  6
Continuous
 62
     7
370
    25
100
AcDbSpline
210
0.0
220
0.0
230
1.0
 70
     8
 71
     3
 72
    13
 73
     9
 74
     0
 42
0.00000001
 43
0.00000001
 40
0.0
 40
0.0
 40
0.0
 40
0.0
 40
0.1451954536213699
 40
0.3564335646208628
 40
0.5609547707297095
 40
0.7605057691249277
 40
0.946443847134074
 40
1.0
 40
1.0
 40
1.0
 40
1.0
 10
1141.092757014307
 20
-359.199380400139
 30
0.0
 10
1141.308603186523
 20
-359.3566462036192
 30
0.0
 10
1141.83847391356
 20
-359.7427107085973
 30
0.0
 10
1142.495431716949
 20
-360.6654266703015
 30
0.0
 10
1143.064780455799
 20
-361.9067820353025
 30
0.0
 10
1143.416085562091
 20
-363.336166093971
 30
0.0
 10
1143.536920219946
 20
-364.5336805963032
 30
0.0
 10
1143.544195039794
 20
-365.2287951122582
 30
0.0
 10
1143.545821848767
 20
-365.3842379349926
 30
0.0
  0
SPLINE
  5
1F4
330
1F
100
AcDbEntity
  8
0
  6
Continuous
 62
     7
370
    25
100
AcDbSpline
210
0.0
220
0.0
230
1.0
 70
     8
 71
     3
 72
    24
 73
    20
 74
     0
 42
0.00000001
 43
0.00000001
 40
0.0
 40
0.0
 40
0.0
 40
0.0
 40
0.0317280596900365
 40
0.0925115510741214
 40
0.1534387045847304
 40
0.2144889895653088
 40
0.2756453849585478
 40
0.3368712853027688
 40
0.3981230335369126
 40
0.4593474098557228
 40
0.5204890863149243
 40
0.5815017374964
 40
0.6423447167238037
 40
0.7029964544315336
 40
0.763485517208273
 40
0.8239286581870892
 40
0.8845697692573208
 40
0.9459919089783351
 40
1.0
 40
1.0
 40
1.0
 40
1.0
 10
1143.545821848767
 20
-365.3842379349926
 30
0.0
 10
1143.540033537383
 20
-365.6882173828048
 30
0.0
 10
1143.523156184357
 20
-366.5745498748162
 30
0.0
 10
1143.333149110544
 20
-368.1412846882901
 30
0.0
 10
1142.905657461665
 20
-370.0796084318438
 30
0.0
 10
1142.26960838592
 20
-372.0616511127949
 30
0.0
 10
1141.440502177539
 20
-374.0414689706884
 30
0.0
 10
1140.43410054089
 20
-375.9766994679956
 30
0.0
 10
1139.271999474902
 20
-377.8249361542823
 30
0.0
 10
1137.979597382775
 20
-379.5459949478413
 30
0.0
 10
1136.585943493428
 20
-381.102718743676
 30
0.0
 10
1135.122965818287
 20
-382.4621276010988
 30
0.0
 10
1133.624849805692
 20
-383.5963328438363
 30
0.0
 10
1132.127062056164
 20
-384.4838373274514
 30
0.0
 10
1130.665711333554
 20
-385.1096848043186
 30
0.0
 10
1129.273882365005
 20
-385.4697539541779
 30
0.0
 10
1127.985073594775
 20
-385.5582072501501
 30
0.0
 10
1126.857461027016
 20
-385.4196906406889
 30
0.0
 10
1126.234150838333
 20
-385.1335785755622
 30
0.0
 10
1125.942513256145
 20
-384.9997109885675
 30
0.0
  0
SPLINE
  5
1F5
330
1F
100
AcDbEntity
  8
0
  6
Continuous
 62
     7
370
    25
100
AcDbSpline
210
0.0
220
0.0
230
1.0
 70
     8
 71
     3
 72
    13
 73
     9
 74
     0
 42
0.00000001
 43
0.00000001
 40
0.0
 40
0.0
 40
0.0
 40
0.0
 40
0.1451954536214012
 40
0.3564335646209491
 40
0.560954770729804
 40
0.7605057691249989
 40
0.9464438471341416
 40
1.0
 40
1.0
 40
1.0
 40
1.0
 10
783.0557335484791
 20
-979.3376942135799
 30
0.0
 10
783.2715797206953
 20
-979.4949600170602
 30
0.0
 10
783.8014504477323
 20
-979.8810245220384
 30
0.0
 10
784.4584082511212
 20
-980.8037404837429
 30
0.0
 10
785.0277569899715
 20
-982.0450958487439
 30
0.0
 10
785.3790620962626
 20
-983.4744799074122
 30
0.0
 10
785.4998967541183
 20
-984.6719944097442
 30
0.0
 10
785.5071715739659
 20
-985.3671089256989
 30
0.0
 10
785.5087983829391
 20
-985.5225517484332
 30
0.0
  0
SPLINE
  5
1F6
330
1F
100
AcDbEntity
  8
0
  6
Continuous
 62
     7
370
    25
100
AcDbSpline
210
0.0
220
0.0
230
1.0
 70
     8
 71
     3
 72
    24
 73
    20
 74
     0
 42
0.00000001
 43
0.00000001
 40
0.0
 40
0.0
 40
0.0
 40
0.0
 40
0.0317280596900362
 40
0.0925115510741394
 40
0.1534387045847524
 40
0.2144889895653154
 40
0.2756453849585588
 40
0.3368712853027874
 40
0.3981230335369279
 40
0.4593474098557296
 40
0.5204890863149425
 40
0.5815017374964173
 40
0.642344716723824
 40
0.7029964544315495
 40
0.763485517208289
 40
0.8239286581870991
 40
0.8845697692573498
 40
0.9459919089783633
 40
1.0
 40
1.0
 40
1.0
 40
1.0
 10
785.5087983829391
 20
-985.5225517484332
 30
0.0
 10
785.5030100715552
 20
-985.8265311962454
 30
0.0
 10
785.4861327185289
 20
-986.7128636882568
 30
0.0
 10
785.2961256447155
 20
-988.279598501731
 30
0.0
 10
784.8686339958366
 20
-990.2179222452852
 30
0.0
 10
784.2325849200918
 20
-992.1999649262359
 30
0.0
 10
783.4034787117109
 20
-994.1797827841294
 30
0.0
 10
782.3970770750612
 20
-996.1150132814367
 30
0.0
 10
781.2349760090741
 20
-997.9632499677233
 30
0.0
 10
779.9425739169465
 20
-999.6843087612823
 30
0.0
 10
778.5489200275991
 20
-1001.241032557117
 30
0.0
 10
777.0859423524581
 20
-1002.60044141454
 30
0.0
 10
775.5878263398632
 20
-1003.734646657277
 30
0.0
 10
774.0900385903356
 20
-1004.622151140892
 30
0.0
 10
772.6286878677257
 20
-1005.247998617759
 30
0.0
 10
771.2368588991759
 20
-1005.608067767619
 30
0.0
 10
769.9480501289459
 20
-1005.69652106359
 30
0.0
 10
768.8204375611878
 20
-1005.558004454129
 30
0.0
 10
768.1971273725045
 20
-1005.271892389002
 30
0.0
 10
767.905489790317
 20
-1005.138024802008
 30
0.0
  0
SPLINE
  5
1F7
330
1F
100
AcDbEntity
  8
0
  6
Continuous
 62
     7
370
    25
100
AcDbSpline
210
0.0
220
0.0
230
1.0
 70
     8
 71
     3
 72
    13
 73
     9
 74
     0
 42
0.00000001
 43
0.00000001
 40
0.0
 40
0.0
 40
0.0
 40
0.0
 40
0.1451954536213853
 40
0.3564335646209204
 40
0.5609547707297763
 40
0.7605057691250119
 40
0.9464438471341775
 40
0.9999999999999999
 40
0.9999999999999999
 40
0.9999999999999999
 40
0.9999999999999999
 10
1069.63714650132
 20
-358.4066896849797
 30
0.0
 10
1069.852992673537
 20
-358.56395548846
 30
0.0
 10
1070.382863400573
 20
-358.9500199934383
 30
0.0
 10
1071.039821203962
 20
-359.8727359551426
 30
0.0
 10
1071.609169942813
 20
-361.1140913201436
 30
0.0
 10
1071.960475049104
 20
-362.543475378812
 30
0.0
 10
1072.081309706959
 20
-363.740989881144
 30
0.0
 10
1072.088584526807
 20
-364.4361043970989
 30
0.0
 10
1072.09021133578
 20
-364.5915472198329
 30
0.0
  0
SPLINE
  5
1F8
330
1F
100
AcDbEntity
  8
0
  6
Continuous
 62
     7
370
    25
100
AcDbSpline
210
0.0
220
0.0
230
1.0
 70
     8
 71
     3
 72
    24
 73
    20
 74
     0
 42
0.00000001
 43
0.00000001
 40
0.0
 40
0.0
 40
0.0
 40
0.0
 40
0.0317280596900363
 40
0.0925115510741208
 40
0.1534387045847296
 40
0.2144889895653076
 40
0.2756453849585461
 40
0.3368712853027673
 40
0.3981230335369086
 40
0.4593474098557148
 40
0.5204890863149257
 40
0.5815017374963973
 40
0.6423447167238071
 40
0.702996454431523
 40
0.7634855172082697
 40
0.8239286581870824
 40
0.8845697692573325
 40
0.9459919089783407
 40
1.0
 40
1.0
 40
1.0
 40
1.0
 10
1072.09021133578
 20
-364.5915472198329
 30
0.0
 10
1072.084423024397
 20
-364.895526667645
 30
0.0
 10
1072.06754567137
 20
-365.7818591596564
 30
0.0
 10
1071.877538597557
 20
-367.3485939731302
 30
0.0
 10
1071.450046948678
 20
-369.2869177166842
 30
0.0
 10
1070.813997872933
 20
-371.2689603976351
 30
0.0
 10
1069.984891664552
 20
-373.2487782555287
 30
0.0
 10
1068.978490027903
 20
-375.1840087528358
 30
0.0
 10
1067.816388961916
 20
-377.0322454391223
 30
0.0
 10
1066.523986869788
 20
-378.7533042326817
 30
0.0
 10
1065.130332980441
 20
-380.3100280285163
 30
0.0
 10
1063.6673553053
 20
-381.669436885939
 30
0.0
 10
1062.169239292705
 20
-382.8036421286768
 30
0.0
 10
1060.671451543177
 20
-383.6911466122916
 30
0.0
 10
1059.210100820568
 20
-384.3169940891589
 30
0.0
 10
1057.818271852018
 20
-384.6770632390184
 30
0.0
 10
1056.529463081788
 20
-384.7655165349902
 30
0.0
 10
1055.401850514029
 20
-384.626999925529
 30
0.0
 10
1054.778540325346
 20
-384.3408878604024
 30
0.0
 10
1054.486902743158
 20
-384.2070202734077
 30
0.0
  0
SPLINE
  5
1F9
330
1F
100
AcDbEntity
  8
0
  6
Continuous
 62
     7
370
    25
100
AcDbSpline
210
0.0
220
0.0
230
1.0
 70
     8
 71
     3
 72
    13
 73
     9
 74
     0
 42
0.00000001
 43
0.00000001
 40
0.0
 40
0.0
 40
0.0
 40
0.0
 40
0.1451954536214013
 40
0.3564335646209673
 40
0.5609547707298462
 40
0.7605057691251023
 40
0.9464438471342981
 40
1.0
 40
1.0
 40
1.0
 40
1.0
 10
746.6472814829557
 20
-917.8415445846624
 30
0.0
 10
746.863127655172
 20
-917.9988103881427
 30
0.0
 10
747.3929983822087
 20
-918.3848748931212
 30
0.0
 10
748.0499561855978
 20
-919.3075908548254
 30
0.0
 10
748.6193049244479
 20
-920.5489462198268
 30
0.0
 10
748.970610030739
 20
-921.9783302784954
 30
0.0
 10
749.0914446885945
 20
-923.1758447808271
 30
0.0
 10
749.098719508442
 20
-923.8709592967816
 30
0.0
 10
749.1003463174152
 20
-924.0264021195153
 30
0.0
  0
SPLINE
  5
1FA
330
1F
100
AcDbEntity
  8
0
  6
Continuous
 62
     7
370
    25
100
AcDbSpline
210
0.0
220
0.0
230
1.0
 70
     8
 71
     3
 72
    24
 73
    20
 74
     0
 42
0.00000001
 43
0.00000001
 40
0.0
 40
0.0
 40
0.0
 40
0.0
 40
0.0317280596900361
 40
0.0925115510741388
 40
0.1534387045847522
 40
0.2144889895653159
 40
0.2756453849585707
 40
0.3368712853027866
 40
0.3981230335369288
 40
0.4593474098557354
 40
0.5204890863149514
 40
0.5815017374964161
 40
0.6423447167238305
 40
0.7029964544315467
 40
0.7634855172082893
 40
0.8239286581870975
 40
0.8845697692573484
 40
0.9459919089783563
 40
1.0
 40
1.0
 40
1.0
 40
1.0
 10
749.1003463174152
 20
-924.0264021195153
 30
0.0
 10
749.0945580060313
 20
-924.3303815673274
 30
0.0
 10
749.0776806530049
 20
-925.216714059339
 30
0.0
 10
748.8876735791916
 20
-926.7834488728131
 30
0.0
 10
748.4601819303127
 20
-928.7217726163673
 30
0.0
 10
747.8241328545677
 20
-930.7038152973182
 30
0.0
 10
746.995026646187
 20
-932.6836331552117
 30
0.0
 10
745.9886250095374
 20
-934.6188636525189
 30
0.0
 10
744.8265239435501
 20
-936.4671003388056
 30
0.0
 10
743.5341218514225
 20
-938.1881591323645
 30
0.0
 10
742.1404679620751
 20
-939.7448829281993
 30
0.0
 10
740.677490286934
 20
-941.1042917856221
 30
0.0
 10
739.1793742743394
 20
-942.2384970283596
 30
0.0
 10
737.6815865248117
 20
-943.1260015119742
 30
0.0
 10
736.2202358022018
 20
-943.7518489888414
 30
0.0
 10
734.828406833652
 20
-944.111918138701
 30
0.0
 10
733.5395980634221
 20
-944.2003714346727
 30
0.0
 10
732.4119854956639
 20
-944.0618548252115
 30
0.0
 10
731.7886753069804
 20
-943.7757427600848
 30
0.0
 10
731.497037724793
 20
-943.6418751730902
 30
0.0
  0
SPLINE
  5
1FB
330
1F
100
AcDbEntity
  8
0
  6
Continuous
 62
     7
370
    25
100
AcDbSpline
210
0.0
220
0.0
230
1.0
 70
     8
 71
     3
 72
    13
 73
     9
 74
     0
 42
0.00000001
 43
0.00000001
 40
0.0
 40
0.0
 40
0.0
 40
0.0
 40
0.1451954536213823
 40
0.3564335646209157
 40
0.5609547707297948
 40
0.7605057691250088
 40
0.9464438471341541
 40
1.0
 40
1.0
 40
1.0
 40
1.0
 10
990.4279920699594
 20
-389.6460836515641
 30
0.0
 10
990.6438382421757
 20
-389.8033494550443
 30
0.0
 10
991.1737089692124
 20
-390.1894139600227
 30
0.0
 10
991.8306667726015
 20
-391.1121299217269
 30
0.0
 10
992.4000155114518
 20
-392.353485286728
 30
0.0
 10
992.7513206177429
 20
-393.7828693453968
 30
0.0
 10
992.8721552755986
 20
-394.9803838477283
 30
0.0
 10
992.8794300954461
 20
-395.6754983636833
 30
0.0
 10
992.8810569044193
 20
-395.8309411864173
 30
0.0
  0
SPLINE
  5
1FC
330
1F
100
AcDbEntity
  8
0
  6
Continuous
 62
     7
370
    25
100
AcDbSpline
210
0.0
220
0.0
230
1.0
 70
     8
 71
     3
 72
    24
 73
    20
 74
     0
 42
0.00000001
 43
0.00000001
 40
0.0
 40
0.0
 40
0.0
 40
0.0
 40
0.0317280596900368
 40
0.0925115510741144
 40
0.1534387045847255
 40
0.2144889895653005
 40
0.2756453849585405
 40
0.3368712853027643
 40
0.3981230335368978
 40
0.459347409855694
 40
0.5204890863149189
 40
0.5815017374963803
 40
0.6423447167238021
 40
0.7029964544315194
 40
0.7634855172082671
 40
0.8239286581870809
 40
0.8845697692573338
 40
0.945991908978332
 40
1.0
 40
1.0
 40
1.0
 40
1.0
 10
992.8810569044193
 20
-395.8309411864173
 30
0.0
 10
992.8752685930355
 20
-396.1349206342295
 30
0.0
 10
992.8583912400092
 20
-397.0212531262409
 30
0.0
 10
992.6683841661959
 20
-398.5879879397145
 30
0.0
 10
992.2408925173172
 20
-400.5263116832685
 30
0.0
 10
991.6048434415721
 20
-402.5083543642193
 30
0.0
 10
990.7757372331914
 20
-404.4881722221129
 30
0.0
 10
989.769335596542
 20
-406.42340271942
 30
0.0
 10
988.6072345305552
 20
-408.2716394057064
 30
0.0
 10
987.3148324384274
 20
-409.9926981992655
 30
0.0
 10
985.9211785490804
 20
-411.5494219951001
 30
0.0
 10
984.4582008739392
 20
-412.908830852523
 30
0.0
 10
982.9600848613445
 20
-414.0430360952611
 30
0.0
 10
981.4622971118167
 20
-414.9305405788758
 30
0.0
 10
980.0009463892069
 20
-415.5563880557434
 30
0.0
 10
978.6091174206571
 20
-415.9164572056028
 30
0.0
 10
977.3203086504268
 20
-416.0049105015748
 30
0.0
 10
976.1926960826687
 20
-415.8663938921135
 30
0.0
 10
975.5693858939852
 20
-415.580281826987
 30
0.0
 10
975.2777483117976
 20
-415.4464142399924
 30
0.0
  0
SPLINE
  5
1FD
330
1F
100
AcDbEntity
  8
0
  6
Continuous
 62
     7
370
    25
100
AcDbSpline
210
0.0
220
0.0
230
1.0
 70
     8
 71
     3
 72
    13
 73
     9
 74
     0
 42
0.00000001
 43
0.00000001
 40
0.0
 40
0.0
 40
0.0
 40
0.0
 40
0.1451954536213796
 40
0.3564335646208781
 40
0.5609547707297647
 40
0.7605057691249894
 40
0.9464438471341399
 40
1.0
 40
1.0
 40
1.0
 40
1.0
 10
734.1017838897708
 20
-833.6160982280767
 30
0.0
 10
734.3176300619871
 20
-833.773364031557
 30
0.0
 10
734.8475007890238
 20
-834.1594285365352
 30
0.0
 10
735.5044585924129
 20
-835.0821444982395
 30
0.0
 10
736.0738073312633
 20
-836.3234998632405
 30
0.0
 10
736.4251124375543
 20
-837.7528839219093
 30
0.0
 10
736.5459470954103
 20
-838.950398424241
 30
0.0
 10
736.5532219152576
 20
-839.645512940196
 30
0.0
 10
736.5548487242309
 20
-839.8009557629301
 30
0.0
  0
SPLINE
  5
1FE
330
1F
100
AcDbEntity
  8
0
  6
Continuous
 62
     7
370
    25
100
AcDbSpline
210
0.0
220
0.0
230
1.0
 70
     8
 71
     3
 72
    24
 73
    20
 74
     0
 42
0.00000001
 43
0.00000001
 40
0.0
 40
0.0
 40
0.0
 40
0.0
 40
0.0317280596900363
 40
0.0925115510741393
 40
0.153438704584753
 40
0.2144889895653168
 40
0.2756453849585606
 40
0.3368712853027907
 40
0.3981230335369229
 40
0.4593474098557256
 40
0.5204890863149408
 40
0.5815017374964083
 40
0.6423447167238154
 40
0.7029964544315381
 40
0.7634855172082792
 40
0.8239286581870925
 40
0.8845697692573355
 40
0.9459919089783471
 40
1.0
 40
1.0
 40
1.0
 40
1.0
 10
736.554848724231
 20
-839.8009557629301
 30
0.0
 10
736.5490604128471
 20
-840.1049352107423
 30
0.0
 10
736.5321830598207
 20
-840.9912677027539
 30
0.0
 10
736.3421759860073
 20
-842.558002516228
 30
0.0
 10
735.9146843371286
 20
-844.496326259782
 30
0.0
 10
735.2786352613833
 20
-846.4783689407329
 30
0.0
 10
734.4495290530026
 20
-848.4581867986265
 30
0.0
 10
733.443127416353
 20
-850.3934172959337
 30
0.0
 10
732.2810263503661
 20
-852.2416539822203
 30
0.0
 10
730.9886242582384
 20
-853.9627127757792
 30
0.0
 10
729.594970368891
 20
-855.5194365716139
 30
0.0
 10
728.1319926937501
 20
-856.8788454290366
 30
0.0
 10
726.6338766811554
 20
-858.0130506717743
 30
0.0
 10
725.1360889316278
 20
-858.900555155389
 30
0.0
 10
723.6747382090178
 20
-859.5264026322562
 30
0.0
 10
722.2829092404684
 20
-859.8864717821157
 30
0.0
 10
720.994100470238
 20
-859.9749250780877
 30
0.0
 10
719.8664879024799
 20
-859.8364084686262
 30
0.0
 10
719.2431777137964
 20
-859.5502964034998
 30
0.0
 10
718.9515401316089
 20
-859.4164288165051
 30
0.0
  0
SPLINE
  5
1FF
330
1F
100
AcDbEntity
  8
0
  6
Continuous
 62
     7
370
    25
100
AcDbSpline
210
0.0
220
0.0
230
1.0
 70
     8
 71
     3
 72
    13
 73
     9
 74
     0
 42
0.00000001
 43
0.00000001
 40
0.0
 40
0.0
 40
0.0
 40
0.0
 40
0.1451954536213237
 40
0.3564335646208576
 40
0.5609547707296976
 40
0.7605057691248928
 40
0.9464438471340225
 40
1.0
 40
1.0
 40
1.0
 40
1.0
 10
911.2188376385957
 20
-449.8596327607867
 30
0.0
 10
911.4346838108119
 20
-450.0168985642669
 30
0.0
 10
911.9645545378487
 20
-450.4029630692451
 30
0.0
 10
912.6215123412379
 20
-451.3256790309492
 30
0.0
 10
913.1908610800883
 20
-452.5670343959501
 30
0.0
 10
913.5421661863795
 20
-453.9964184546185
 30
0.0
 10
913.6630008442354
 20
-455.1939329569507
 30
0.0
 10
913.6702756640829
 20
-455.8890474729059
 30
0.0
 10
913.6719024730562
 20
-456.0444902956403
 30
0.0
  0
SPLINE
  5
200
330
1F
100
AcDbEntity
  8
0
  6
Continuous
 62
     7
370
    25
100
AcDbSpline
210
0.0
220
0.0
230
1.0
 70
     8
 71
     3
 72
    24
 73
    20
 74
     0
 42
0.00000001
 43
0.00000001
 40
0.0
 40
0.0
 40
0.0
 40
0.0
 40
0.0317280596900365
 40
0.0925115510741102
 40
0.1534387045847221
 40
0.2144889895652967
 40
0.2756453849585342
 40
0.3368712853027562
 40
0.3981230335368989
 40
0.459347409855702
 40
0.5204890863149226
 40
0.5815017374963931
 40
0.642344716723791
 40
0.7029964544315271
 40
0.7634855172082721
 40
0.8239286581870946
 40
0.8845697692573328
 40
0.9459919089783518
 40
1.0
 40
1.0
 40
1.0
 40
1.0
 10
913.6719024730562
 20
-456.0444902956403
 30
0.0
 10
913.6661141616722
 20
-456.3484697434525
 30
0.0
 10
913.6492368086459
 20
-457.2348022354638
 30
0.0
 10
913.4592297348327
 20
-458.8015370489376
 30
0.0
 10
913.0317380859541
 20
-460.7398607924914
 30
0.0
 10
912.3956890102089
 20
-462.7219034734422
 30
0.0
 10
911.5665828018283
 20
-464.7017213313358
 30
0.0
 10
910.5601811651788
 20
-466.6369518286429
 30
0.0
 10
909.3980800991919
 20
-468.4851885149296
 30
0.0
 10
908.1056780070641
 20
-470.2062473084887
 30
0.0
 10
906.7120241177169
 20
-471.7629711043236
 30
0.0
 10
905.2490464425758
 20
-473.1223799617463
 30
0.0
 10
903.7509304299812
 20
-474.2565852044841
 30
0.0
 10
902.2531426804533
 20
-475.1440896880989
 30
0.0
 10
900.7917919578432
 20
-475.7699371649664
 30
0.0
 10
899.3999629892935
 20
-476.1300063148257
 30
0.0
 10
898.1111542190632
 20
-476.2184596107977
 30
0.0
 10
896.9835416513051
 20
-476.0799430013367
 30
0.0
 10
896.3602314626216
 20
-475.7938309362099
 30
0.0
 10
896.0685938804343
 20
-475.6599633492152
 30
0.0
  0
SPLINE
  5
201
330
1F
100
AcDbEntity
  8
0
  6
Continuous
 62
     7
370
    25
100
AcDbSpline
210
0.0
220
0.0
230
1.0
 70
     8
 71
     3
 72
    13
 73
     9
 74
     0
 42
0.00000001
 43
0.00000001
 40
0.0
 40
0.0
 40
0.0
 40
0.0
 40
0.1451954536213921
 40
0.3564335646208869
 40
0.5609547707297358
 40
0.760505769124961
 40
0.946443847134111
 40
1.0
 40
1.0
 40
1.0
 40
1.0
 10
746.6472814829685
 20
-734.9059286663982
 30
0.0
 10
746.8631276551848
 20
-735.0631944698783
 30
0.0
 10
747.3929983822217
 20
-735.4492589748567
 30
0.0
 10
748.0499561856108
 20
-736.3719749365608
 30
0.0
 10
748.619304924461
 20
-737.6133303015619
 30
0.0
 10
748.9706100307521
 20
-739.0427143602304
 30
0.0
 10
749.0914446886081
 20
-740.2402288625623
 30
0.0
 10
749.0987195084555
 20
-740.9353433785172
 30
0.0
 10
749.1003463174288
 20
-741.0907862012516
 30
0.0
  0
SPLINE
  5
202
330
1F
100
AcDbEntity
  8
0
  6
Continuous
 62
     7
370
    25
100
AcDbSpline
210
0.0
220
0.0
230
1.0
 70
     8
 71
     3
 72
    24
 73
    20
 74
     0
 42
0.00000001
 43
0.00000001
 40
0.0
 40
0.0
 40
0.0
 40
0.0
 40
0.031728059690036
 40
0.0925115510741386
 40
0.1534387045847518
 40
0.2144889895653153
 40
0.2756453849585699
 40
0.3368712853027857
 40
0.3981230335369277
 40
0.459347409855734
 40
0.5204890863149529
 40
0.5815017374964208
 40
0.6423447167238286
 40
0.7029964544315492
 40
0.7634855172082917
 40
0.8239286581871054
 40
0.8845697692573492
 40
0.9459919089783632
 40
1.0
 40
1.0
 40
1.0
 40
1.0
 10
749.1003463174288
 20
-741.0907862012516
 30
0.0
 10
749.0945580060448
 20
-741.3947656490637
 30
0.0
 10
749.0776806530187
 20
-742.2810981410753
 30
0.0
 10
748.8876735792052
 20
-743.8478329545495
 30
0.0
 10
748.4601819303265
 20
-745.7861566981035
 30
0.0
 10
747.8241328545814
 20
-747.7681993790545
 30
0.0
 10
746.9950266462005
 20
-749.748017236948
 30
0.0
 10
745.988625009551
 20
-751.6832477342552
 30
0.0
 10
744.8265239435639
 20
-753.5314844205418
 30
0.0
 10
743.534121851436
 20
-755.2525432141009
 30
0.0
 10
742.1404679620887
 20
-756.8092670099356
 30
0.0
 10
740.6774902869478
 20
-758.1686758673584
 30
0.0
 10
739.1793742743527
 20
-759.3028811100959
 30
0.0
 10
737.6815865248252
 20
-760.1903855937106
 30
0.0
 10
736.2202358022151
 20
-760.8162330705778
 30
0.0
 10
734.8284068336656
 20
-761.1763022204372
 30
0.0
 10
733.5395980634354
 20
-761.264755516409
 30
0.0
 10
732.4119854956774
 20
-761.1262389069477
 30
0.0
 10
731.7886753069943
 20
-760.840126841821
 30
0.0
 10
731.4970377248067
 20
-760.7062592548264
 30
0.0
  0
SPLINE
  5
203
330
1F
100
AcDbEntity
  8
0
  6
Continuous
 62
     7
370
    25
100
AcDbSpline
210
0.0
220
0.0
230
1.0
 70
     8
 71
     3
 72
    13
 73
     9
 74
     0
 42
0.00000001
 43
0.00000001
 40
0.0
 40
0.0
 40
0.0
 40
0.0
 40
0.1451954536213792
 40
0.3564335646209122
 40
0.5609547707297696
 40
0.7605057691249955
 40
0.9464438471341504
 40
1.0
 40
1.0
 40
1.0
 40
1.0
 10
839.763227125603
 20
-533.153215293372
 30
0.0
 10
839.9790732978191
 20
-533.3104810968523
 30
0.0
 10
840.508944024856
 20
-533.6965456018306
 30
0.0
 10
841.1659018282452
 20
-534.6192615635347
 30
0.0
 10
841.7352505670954
 20
-535.860616928536
 30
0.0
 10
842.0865556733866
 20
-537.2900009872044
 30
0.0
 10
842.2073903312422
 20
-538.4875154895366
 30
0.0
 10
842.2146651510898
 20
-539.1826300054913
 30
0.0
 10
842.2162919600631
 20
-539.3380728282253
 30
0.0
  0
SPLINE
  5
204
330
1F
100
AcDbEntity
  8
0
  6
Continuous
 62
     7
370
    25
100
AcDbSpline
210
0.0
220
0.0
230
1.0
 70
     8
 71
     3
 72
    24
 73
    20
 74
     0
 42
0.00000001
 43
0.00000001
 40
0.0
 40
0.0
 40
0.0
 40
0.0
 40
0.0317280596900364
 40
0.0925115510741211
 40
0.15343870458473
 40
0.2144889895653082
 40
0.2756453849585471
 40
0.3368712853027679
 40
0.3981230335369115
 40
0.4593474098557215
 40
0.5204890863149227
 40
0.5815017374963983
 40
0.642344716723802
 40
0.7029964544315217
 40
0.7634855172082607
 40
0.8239286581870789
 40
0.8845697692573105
 40
0.9459919089783259
 40
1.0
 40
1.0
 40
1.0
 40
1.0
 10
842.2162919600631
 20
-539.3380728282253
 30
0.0
 10
842.2105036486792
 20
-539.6420522760375
 30
0.0
 10
842.1936262956528
 20
-540.5283847680489
 30
0.0
 10
842.0036192218395
 20
-542.0951195815229
 30
0.0
 10
841.5761275729609
 20
-544.0334433250767
 30
0.0
 10
840.9400784972158
 20
-546.0154860060277
 30
0.0
 10
840.110972288835
 20
-547.9953038639211
 30
0.0
 10
839.1045706521855
 20
-549.9305343612284
 30
0.0
 10
837.9424695861984
 20
-551.7787710475151
 30
0.0
 10
836.6500674940706
 20
-553.4998298410741
 30
0.0
 10
835.2564136047237
 20
-555.0565536369088
 30
0.0
 10
833.7934359295826
 20
-556.4159624943316
 30
0.0
 10
832.2953199169878
 20
-557.5501677370693
 30
0.0
 10
830.7975321674603
 20
-558.437672220684
 30
0.0
 10
829.3361814448504
 20
-559.0635196975514
 30
0.0
 10
827.9443524763009
 20
-559.4235888474108
 30
0.0
 10
826.6555437060705
 20
-559.5120421433828
 30
0.0
 10
825.5279311383124
 20
-559.3735255339217
 30
0.0
 10
824.9046209496287
 20
-559.0874134687951
 30
0.0
 10
824.6129833674411
 20
-558.9535458818003
 30
0.0
  0
SPLINE
  5
205
330
1F
100
AcDbEntity
  8
0
  6
Continuous
 62
     7
370
    25
100
AcDbSpline
210
0.0
220
0.0
230
1.0
 70
     8
 71
     3
 72
    13
 73
     9
 74
     0
 42
0.00000001
 43
0.00000001
 40
0.0
 40
0.0
 40
0.0
 40
0.0
 40
0.1451954536214118
 40
0.356433564620971
 40
0.5609547707298473
 40
0.7605057691250654
 40
0.9464438471342441
 40
1.0
 40
1.0
 40
1.0
 40
1.0
 10
783.0557335485054
 20
-631.3734750505158
 30
0.0
 10
783.2715797207215
 20
-631.5307408539961
 30
0.0
 10
783.8014504477584
 20
-631.9168053589744
 30
0.0
 10
784.4584082511475
 20
-632.8395213206788
 30
0.0
 10
785.0277569899977
 20
-634.0808766856801
 30
0.0
 10
785.3790620962886
 20
-635.5102607443487
 30
0.0
 10
785.4998967541443
 20
-636.7077752466804
 30
0.0
 10
785.5071715739917
 20
-637.402889762635
 30
0.0
 10
785.5087983829651
 20
-637.5583325853688
 30
0.0
  0
SPLINE
  5
206
330
1F
100
AcDbEntity
  8
0
  6
Continuous
 62
     7
370
    25
100
AcDbSpline
210
0.0
220
0.0
230
1.0
 70
     8
 71
     3
 72
    24
 73
    20
 74
     0
 42
0.00000001
 43
0.00000001
 40
0.0
 40
0.0
 40
0.0
 40
0.0
 40
0.0317280596900361
 40
0.0925115510741392
 40
0.153438704584752
 40
0.214488989565315
 40
0.2756453849585583
 40
0.3368712853027866
 40
0.3981230335369282
 40
0.4593474098557337
 40
0.5204890863149462
 40
0.5815017374964206
 40
0.642344716723827
 40
0.7029964544315508
 40
0.7634855172082888
 40
0.8239286581870938
 40
0.8845697692573425
 40
0.9459919089783556
 40
1.0
 40
1.0
 40
1.0
 40
1.0
 10
785.5087983829651
 20
-637.5583325853688
 30
0.0
 10
785.5030100715811
 20
-637.862312033181
 30
0.0
 10
785.4861327185548
 20
-638.7486445251926
 30
0.0
 10
785.2961256447416
 20
-640.3153793386667
 30
0.0
 10
784.8686339958626
 20
-642.2537030822208
 30
0.0
 10
784.2325849201177
 20
-644.2357457631716
 30
0.0
 10
783.4034787117367
 20
-646.2155636210651
 30
0.0
 10
782.3970770750873
 20
-648.1507941183723
 30
0.0
 10
781.2349760091
 20
-649.999030804659
 30
0.0
 10
779.9425739169722
 20
-651.7200895982181
 30
0.0
 10
778.5489200276251
 20
-653.2768133940529
 30
0.0
 10
777.0859423524838
 20
-654.6362222514756
 30
0.0
 10
775.5878263398891
 20
-655.7704274942132
 30
0.0
 10
774.0900385903612
 20
-656.6579319778278
 30
0.0
 10
772.6286878677518
 20
-657.283779454695
 30
0.0
 10
771.236858899202
 20
-657.6438486045544
 30
0.0
 10
769.9480501289719
 20
-657.7323019005262
 30
0.0
 10
768.8204375612138
 20
-657.593785291065
 30
0.0
 10
768.1971273725304
 20
-657.3076732259383
 30
0.0
 10
767.905489790343
 20
-657.1738056389437
 30
0.0
  0
LWPOLYLINE
  5
207
330
1F
100
AcDbEntity
  8
0
  6
Continuous
 62
     7
370
    25
100
AcDbPolyline
 90
      213
 70
   128
 43
0.0
 10
1263.6422939271
 20
-535.280730053
 10
1263.5185455372
 20
-525.7097350865
 10
1263.1474090592
 20
-516.2900234329
 10
1262.5292104723
 20
-507.029868679
 10
1261.6644927569
 20
-497.9374042687
 10
1260.5540154179
 20
-489.0206163586
 10
1259.1987538175
 20
-480.2873368044
 10
1257.5998983187
 20
-471.745236281
 10
1255.7588532392
 20
-463.4018175458
 10
1253.6772356187
 20
-455.2644088486
 10
1251.3568737981
 20
-447.3401574951
 10
1248.7998058138
 20
-439.636023569
 10
1246.0082776077
 20
-432.158773819
 10
1242.9847410541
 20
-424.9149757154
 10
1239.7318518069
 20
-417.9109916815
 10
1236.2524669665
 20
-411.1529735053
 10
1232.5496425705
 20
-404.6468569368
 10
1228.6266309094
 20
-398.3983564734
 10
1224.4868776703
 20
-392.412960342
 10
1220.1340189101
 20
-386.6959256772
 10
1215.571877862
 20
-381.2522739051
 10
1210.8044615778
 20
-376.0867863317
 10
1205.8359574077
 20
-371.2039999442
 10
1200.6707293231
 20
-366.6082034257
 10
1195.313314083
 20
-362.3034333882
 10
1189.76841725
 20
-358.2934708274
 10
1184.0409090564
 20
-354.5818378017
 10
1178.1358201273
 20
-351.1717943383
 10
1172.0583370616
 20
-348.0663355707
 10
1165.8137978767
 20
-345.2681891069
 10
1159.4076873198
 20
-342.7798126345
 10
1152.8456320507
 20
-340.6033917617
 10
1146.1333956996
 20
-338.7408380977
 10
1139.2768738047
 20
-337.1937875736
 10
1132.2820886344
 20
-335.9635990056
 10
1125.1551838971
 20
-335.0513529017
 10
1117.9024193455
 20
-334.457850512
 10
1110.5301652785
 20
-334.1836131258
 10
1103.0448969458
 20
-334.2288816132
 10
1095.4531888604
 20
-334.5936162137
 10
1087.7617090244
 20
-335.277496571
 10
1079.9772130722
 20
-336.2799220145
 10
1072.1065383364
 20
-337.6000120869
 10
1064.1565978433
 20
-339.2366073175
 10
1056.1343742399
 20
-341.1882702406
 10
1048.0469136617
 20
-343.4532866579
 10
1039.9013195436
 20
-346.0296671443
 10
1031.7047463807
 20
-348.9151487955
 10
1023.4643934443
 20
-352.107197215
 10
1015.1874984588
 20
-355.6030087406
 10
1006.8813312444
 20
-359.3995129066
 10
998.5531873318
 20
-363.4933751411
 10
990.2103815547
 20
-367.8809996943
 10
981.8602416242
 20
-372.5585327972
 10
973.5101016938
 20
-377.5218660463
 10
965.1672959166
 20
-382.7666400121
 10
956.8391520041
 20
-388.2882480681
 10
948.5329847897
 20
-394.0818404369
 10
940.2560898042
 20
-400.14232845
 10
932.0157368678
 20
-406.4643890173
 10
923.8191637049
 20
-413.0424693024
 10
915.6735695868
 20
-419.8707916
 10
907.5861090086
 20
-426.9433584102
 10
899.5638854052
 20
-434.2539577068
 10
891.613944912
 20
-441.7961683933
 10
883.7432701763
 20
-449.5633659423
 10
875.9587742241
 20
-457.5487282149
 10
868.2672943881
 20
-465.7452414517
 10
860.6755863027
 20
-474.1457064341
 10
853.19031797
 20
-482.742744807
 10
845.818063903
 20
-491.5288055597
 10
838.5652993514
 20
-500.4961716579
 10
831.4383946141
 20
-509.636966822
 10
824.4436094438
 20
-518.943162445
 10
817.5870875489
 20
-528.4065846441
 10
810.8748511978
 20
-538.0189214403
 10
804.3127959287
 20
-547.7717300589
 10
797.9066853718
 20
-557.6564443448
 10
791.6621461869
 20
-567.6643822868
 10
785.5846631212
 20
-577.7867536429
 10
779.6795741921
 20
-588.0146676613
 10
773.9520659985
 20
-598.3391408891
 10
768.4071691655
 20
-608.7511050629
 10
763.0497539254
 20
-619.2414150737
 10
757.8845258408
 20
-629.800856999
 10
752.9160216707
 20
-640.4201561961
 10
748.1486053864
 20
-651.0899854481
 10
743.5864643384
 20
-661.8009731559
 10
739.2336055782
 20
-672.54371157
 10
735.0938523391
 20
-683.3087650536
 10
731.170840678
 20
-694.0866783695
 10
727.468016282
 20
-704.8679849858
 10
723.9886314416
 20
-715.6432153898
 10
720.7357421944
 20
-726.4029054061
 10
717.7122056408
 20
-737.1376045086
 10
714.9206774346
 20
-747.8378841213
 10
712.3636094504
 20
-758.4943459
 10
710.0432476298
 20
-769.0976299867
 10
707.9616300093
 20
-779.638423231
 10
706.1205849298
 20
-790.1074673697
 10
704.521729431
 20
-800.4955671589
 10
703.1664678306
 20
-810.7935984503
 10
702.0559904916
 20
-820.992516205
 10
701.1912727762
 20
-831.0833624384
 10
700.5730741893
 20
-841.0572740881
 10
700.2019377113
 20
-850.9054907982
 10
700.0781893214
 20
-860.6193626143
 10
700.2019377113
 20
-870.1903575808
 10
700.5730741893
 20
-879.6100692344
 10
701.1912727762
 20
-888.8702239883
 10
702.0559904916
 20
-897.9626883987
 10
703.1664678306
 20
-906.8794763087
 10
704.521729431
 20
-915.612755863
 10
706.1205849298
 20
-924.1548563864
 10
707.9616300093
 20
-932.4982751216
 10
710.0432476298
 20
-940.6356838187
 10
712.3636094504
 20
-948.5599351722
 10
714.9206774346
 20
-956.2640690983
 10
717.7122056408
 20
-963.7413188483
 10
720.7357421944
 20
-970.9851169519
 10
723.9886314416
 20
-977.9891009859
 10
727.468016282
 20
-984.747119162
 10
731.170840678
 20
-991.2532357306
 10
735.0938523391
 20
-997.5017361939
 10
739.2336055782
 20
-1003.4871323254
 10
743.5864643384
 20
-1009.2041669901
 10
748.1486053864
 20
-1014.6478187623
 10
752.9160216707
 20
-1019.8133063356
 10
757.8845258408
 20
-1024.6960927231
 10
763.0497539254
 20
-1029.2918892416
 10
768.4071691655
 20
-1033.5966592791
 10
773.9520659985
 20
-1037.6066218399
 10
779.6795741921
 20
-1041.3182548657
 10
785.5846631212
 20
-1044.728298329
 10
791.6621461869
 20
-1047.8337570967
 10
797.9066853718
 20
-1050.6319035605
 10
804.3127959287
 20
-1053.1202800329
 10
810.8748511978
 20
-1055.2967009057
 10
817.5870875489
 20
-1057.1592545697
 10
824.4436094438
 20
-1058.7063050938
 10
831.4383946141
 20
-1059.9364936617
 10
838.5652993514
 20
-1060.8487397657
 10
845.818063903
 20
-1061.4422421553
 10
853.19031797
 20
-1061.7164795415
 10
860.6755863027
 20
-1061.6712110541
 10
868.2672943881
 20
-1061.3064764536
 10
875.9587742241
 20
-1060.6225960964
 10
883.7432701763
 20
-1059.6201706529
 10
891.6139449121
 20
-1058.3000805805
 10
899.5638854052
 20
-1056.6634853498
 10
907.5861090086
 20
-1054.7118224268
 10
915.6735695868
 20
-1052.4468060095
 10
923.8191637049
 20
-1049.870425523
 10
932.0157368678
 20
-1046.9849438718
 10
940.2560898042
 20
-1043.7928954523
 10
948.5329847897
 20
-1040.2970839267
 10
956.8391520041
 20
-1036.5005797607
 10
965.1672959167
 20
-1032.4067175263
 10
973.5101016938
 20
-1028.0190929731
 10
981.8602416243
 20
-1023.3415598701
 10
990.2103815547
 20
-1018.378226621
 10
998.5531873319
 20
-1013.1334526552
 10
1006.8813312444
 20
-1007.6118445993
 10
1015.1874984588
 20
-1001.8182522305
 10
1023.4643934443
 20
-995.7577642173
 10
1031.7047463807
 20
-989.43570365
 10
1039.9013195436
 20
-982.8576233649
 10
1048.0469136617
 20
-976.0293010674
 10
1056.1343742399
 20
-968.9567342571
 10
1064.1565978433
 20
-961.6461349605
 10
1072.1065383365
 20
-954.1039242741
 10
1079.9772130722
 20
-946.336726725
 10
1087.7617090244
 20
-938.3513644525
 10
1095.4531888604
 20
-930.1548512156
 10
1103.0448969458
 20
-921.7543862332
 10
1110.5301652785
 20
-913.1573478603
 10
1117.9024193455
 20
-904.3712871076
 10
1125.1551838971
 20
-895.4039210094
 10
1132.2820886344
 20
-886.2631258453
 10
1139.2768738047
 20
-876.9569302224
 10
1146.1333956996
 20
-867.4935080232
 10
1152.8456320507
 20
-857.881171227
 10
1159.4076873198
 20
-848.1283626085
 10
1165.8137978767
 20
-838.2436483226
 10
1172.0583370616
 20
-828.2357103806
 10
1178.1358201273
 20
-818.1133390244
 10
1184.0409090564
 20
-807.885425006
 10
1189.76841725
 20
-797.5609517782
 10
1195.313314083
 20
-787.1489876044
 10
1200.6707293231
 20
-776.6586775937
 10
1205.8359574077
 20
-766.0992356684
 10
1210.8044615778
 20
-755.4799364712
 10
1215.5718778621
 20
-744.8101072193
 10
1220.1340189101
 20
-734.0991195115
 10
1224.4868776703
 20
-723.3563810973
 10
1228.6266309094
 20
-712.5913276138
 10
1232.5496425705
 20
-701.8134142978
 10
1236.2524669665
 20
-691.0321076816
 10
1239.7318518069
 20
-680.2568772775
 10
1242.9847410541
 20
-669.4971872612
 10
1246.0082776077
 20
-658.7624881588
 10
1248.7998058138
 20
-648.0622085461
 10
1251.3568737981
 20
-637.4057467674
 10
1253.6772356187
 20
-626.8024626806
 10
1255.7588532392
 20
-616.2616694363
 10
1257.5998983187
 20
-605.7926252976
 10
1259.1987538175
 20
-595.4045255084
 10
1260.5540154179
 20
-585.1064942171
 10
1261.6644927569
 20
-574.9075764624
 10
1262.5292104723
 20
-564.8167302289
 10
1263.1474090592
 20
-554.8428185793
 10
1263.5185455372
 20
-544.9946018691
 10
1263.6422939271
 20
-535.280730053
  0
ARC
  5
208
330
1F
100
AcDbEntity
  8
0
  6
Continuous
 62
     7
370
    25
100
AcDbCircle
 10
852.2154892372
 20
-924.1445216387
 30
0.0
 40
138.6886154354864
100
AcDbArc
 50
214.1605454496
 51
265.6198944064
  0
ARC
  5
209
330
1F
100
AcDbEntity
  8
0
  6
Continuous
 62
     7
370
    25
100
AcDbCircle
 10
1112.9806094515
 20
-472.4642254014
 30
0.0
 40
138.5671766430345
100
AcDbArc
 50
34.5100228978
 51
85.2852269028
  0
ARC
  5
20A
330
1F
100
AcDbEntity
  8
0
  6
Continuous
 62
     7
370
    25
100
AcDbCircle
 10
1144.6759795384
 20
-494.1784260368
 30
0.0
 40
141.6252909354659
100
AcDbArc
 50
34.418477183
 51
59.6473237002
  0
ARC
  5
20B
330
1F
100
AcDbEntity
  8
0
  6
Continuous
 62
     7
370
    25
100
AcDbCircle
 10
886.8684057764
 20
-940.7338315033
 30
0.0
 40
141.7481326241629
100
AcDbArc
 50
240.3635649407
 51
265.8655731629
  0
LWPOLYLINE
  5
20C
330
1F
100
AcDbEntity
  8
0
  6
Continuous
 62
     7
370
    25
100
AcDbPolyline
 90
       43
 70
   128
 43
0.0
 10
842.5091851789
 20
-538.9298687723
 10
842.3828204026
 20
-540.9500030934
 10
842.0065488541
 20
-543.070908617
 10
841.388775818
 20
-545.2452078185
 10
840.5433013231
 20
-547.4243304467
 10
839.4890118724
 20
-549.5595985029
 10
838.2494585502
 20
-551.6033136271
 10
836.8523309294
 20
-553.5098226007
 10
835.3288385323
 20
-555.2365371636
 10
833.7130136616
 20
-556.7448853657
 10
832.0409511748
 20
-558.0011732007
 10
830.350002185
 20
-558.9773372744
 10
828.6779396982
 20
-559.6515716942
 10
827.0621148275
 20
-560.0088151776
 10
825.5386224304
 20
-560.0410874953
 10
824.1414948096
 20
-559.7476677371
 10
822.9019414874
 20
-559.1351104156
 10
821.8476520367
 20
-558.2170990491
 10
821.0021775418
 20
-557.0141404946
 10
820.3844045057
 20
-555.5531068583
 10
820.0081329572
 20
-553.8666352174
 10
819.8817681809
 20
-551.9923985615
 10
820.0081329572
 20
-549.9722642404
 10
820.3844045057
 20
-547.8513587168
 10
821.0021775418
 20
-545.6770595153
 10
821.8476520367
 20
-543.4979368871
 10
822.9019414874
 20
-541.3626688309
 10
824.1414948096
 20
-539.3189537067
 10
825.5386224304
 20
-537.4124447331
 10
827.0621148275
 20
-535.6857301702
 10
828.6779396982
 20
-534.1773819681
 10
830.350002185
 20
-532.9210941331
 10
832.0409511748
 20
-531.9449300594
 10
833.7130136616
 20
-531.2706956395
 10
835.3288385323
 20
-530.9134521562
 10
836.8523309294
 20
-530.8811798385
 10
838.2494585502
 20
-531.1745995966
 10
839.4890118724
 20
-531.7871569182
 10
840.5433013231
 20
-532.7051682847
 10
841.388775818
 20
-533.9081268392
 10
842.0065488541
 20
-535.3691604755
 10
842.3828204026
 20
-537.0556321164
 10
842.5091851789
 20
-538.9298687723
  0
LWPOLYLINE
  5
20D
330
1F
100
AcDbEntity
  8
0
  6
Continuous
 62
     7
370
    25
100
AcDbPolyline
 90
       43
 70
   128
 43
0.0
 10
749.3932395362
 20
-740.6825821453
 10
749.26687476
 20
-742.7027164664
 10
748.8906032115
 20
-744.82362199
 10
748.2728301754
 20
-746.9979211915
 10
747.4273556804
 20
-749.1770438197
 10
746.3730662298
 20
-751.3123118759
 10
745.1335129076
 20
-753.3560270001
 10
743.7363852867
 20
-755.2625359737
 10
742.2128928897
 20
-756.9892505366
 10
740.597068019
 20
-758.4975987388
 10
738.9250055322
 20
-759.7538865738
 10
737.2340565423
 20
-760.7300506474
 10
735.5619940556
 20
-761.4042850673
 10
733.9461691849
 20
-761.7615285506
 10
732.4226767878
 20
-761.7938008683
 10
731.0255491669
 20
-761.5003811102
 10
729.7859958447
 20
-760.8878237887
 10
728.7317063941
 20
-759.9698124222
 10
727.8862318991
 20
-758.7668538676
 10
727.268458863
 20
-757.3058202313
 10
726.8921873145
 20
-755.6193485904
 10
726.7658225383
 20
-753.7451119345
 10
726.8921873145
 20
-751.7249776135
 10
727.268458863
 20
-749.6040720898
 10
727.8862318991
 20
-747.4297728883
 10
728.7317063941
 20
-745.2506502601
 10
729.7859958447
 20
-743.115382204
 10
731.0255491669
 20
-741.0716670797
 10
732.4226767878
 20
-739.1651581061
 10
733.9461691849
 20
-737.4384435432
 10
735.5619940556
 20
-735.9300953411
 10
737.2340565423
 20
-734.6738075061
 10
738.9250055322
 20
-733.6976434325
 10
740.597068019
 20
-733.0234090126
 10
742.2128928897
 20
-732.6661655292
 10
743.7363852867
 20
-732.6338932115
 10
745.1335129076
 20
-732.9273129697
 10
746.3730662298
 20
-733.5398702912
 10
747.4273556804
 20
-734.4578816577
 10
748.2728301754
 20
-735.6608402122
 10
748.8906032115
 20
-737.1218738485
 10
749.26687476
 20
-738.8083454895
 10
749.3932395362
 20
-740.6825821453
  0
LWPOLYLINE
  5
20E
330
1F
100
AcDbEntity
  8
0
  6
Continuous
 62
     7
370
    25
100
AcDbPolyline
 90
       43
 70
   128
 43
0.0
 10
749.3932395362
 20
-923.6181980636
 10
749.26687476
 20
-925.6383323846
 10
748.8906032115
 20
-927.7592379083
 10
748.2728301754
 20
-929.9335371098
 10
747.4273556804
 20
-932.112659738
 10
746.3730662298
 20
-934.2479277941
 10
745.1335129076
 20
-936.2916429184
 10
743.7363852867
 20
-938.198151892
 10
742.2128928896
 20
-939.9248664549
 10
740.5970680189
 20
-941.433214657
 10
738.9250055322
 20
-942.689502492
 10
737.2340565423
 20
-943.6656665656
 10
735.5619940555
 20
-944.3399009855
 10
733.9461691848
 20
-944.6971444689
 10
732.4226767878
 20
-944.7294167866
 10
731.0255491669
 20
-944.4359970284
 10
729.7859958447
 20
-943.8234397069
 10
728.7317063941
 20
-942.9054283404
 10
727.8862318991
 20
-941.7024697859
 10
727.268458863
 20
-940.2414361496
 10
726.8921873145
 20
-938.5549645087
 10
726.7658225383
 20
-936.6807278528
 10
726.8921873145
 20
-934.6605935317
 10
727.268458863
 20
-932.5396880081
 10
727.8862318991
 20
-930.3653888066
 10
728.7317063941
 20
-928.1862661784
 10
729.7859958447
 20
-926.0509981222
 10
731.0255491669
 20
-924.007282998
 10
732.4226767878
 20
-922.1007740244
 10
733.9461691848
 20
-920.3740594615
 10
735.5619940555
 20
-918.8657112594
 10
737.2340565423
 20
-917.6094234243
 10
738.9250055322
 20
-916.6332593507
 10
740.5970680189
 20
-915.9590249308
 10
742.2128928896
 20
-915.6017814475
 10
743.7363852867
 20
-915.5695091298
 10
745.1335129076
 20
-915.8629288879
 10
746.3730662298
 20
-916.4754862094
 10
747.4273556804
 20
-917.3934975759
 10
748.2728301754
 20
-918.5964561305
 10
748.8906032115
 20
-920.0574897668
 10
749.26687476
 20
-921.7439614077
 10
749.3932395362
 20
-923.6181980636
  0
LWPOLYLINE
  5
20F
330
1F
100
AcDbEntity
  8
0
  6
Continuous
 62
     7
370
    25
100
AcDbPolyline
 90
       43
 70
   128
 43
0.0
 10
842.5091851788
 20
-1017.8615289992
 10
842.3828204026
 20
-1019.8816633203
 10
842.0065488541
 20
-1022.0025688439
 10
841.388775818
 20
-1024.1768680454
 10
840.543301323
 20
-1026.3559906736
 10
839.4890118724
 20
-1028.4912587298
 10
838.2494585502
 20
-1030.534973854
 10
836.8523309293
 20
-1032.4414828276
 10
835.3288385323
 20
-1034.1681973905
 10
833.7130136616
 20
-1035.6765455926
 10
832.0409511748
 20
-1036.9328334277
 10
830.3500021849
 20
-1037.9089975013
 10
828.6779396982
 20
-1038.5832319212
 10
827.0621148275
 20
-1038.9404754045
 10
825.5386224304
 20
-1038.9727477222
 10
824.1414948095
 20
-1038.6793279641
 10
822.9019414873
 20
-1038.0667706425
 10
821.8476520367
 20
-1037.148759276
 10
821.0021775417
 20
-1035.9458007215
 10
820.3844045056
 20
-1034.4847670852
 10
820.0081329571
 20
-1032.7982954443
 10
819.8817681809
 20
-1030.9240587884
 10
820.0081329571
 20
-1028.9039244674
 10
820.3844045056
 20
-1026.7830189437
 10
821.0021775417
 20
-1024.6087197422
 10
821.8476520367
 20
-1022.429597114
 10
822.9019414873
 20
-1020.2943290578
 10
824.1414948095
 20
-1018.2506139336
 10
825.5386224304
 20
-1016.34410496
 10
827.0621148275
 20
-1014.6173903971
 10
828.6779396982
 20
-1013.109042195
 10
830.3500021849
 20
-1011.85275436
 10
832.0409511748
 20
-1010.8765902863
 10
833.7130136616
 20
-1010.2023558665
 10
835.3288385323
 20
-1009.8451123831
 10
836.8523309293
 20
-1009.8128400654
 10
838.2494585502
 20
-1010.1062598236
 10
839.4890118724
 20
-1010.7188171451
 10
840.543301323
 20
-1011.6368285116
 10
841.388775818
 20
-1012.8397870661
 10
842.0065488541
 20
-1014.3008207024
 10
842.3828204026
 20
-1015.9872923433
 10
842.5091851788
 20
-1017.8615289992
  0
LWPOLYLINE
  5
210
330
1F
100
AcDbEntity
  8
0
  6
Continuous
 62
     7
370
    25
100
AcDbPolyline
 90
       43
 70
   128
 43
0.0
 10
993.1739501232
 20
-987.4148257478
 10
993.0475853469
 20
-989.4349600688
 10
992.6713137984
 20
-991.5558655925
 10
992.0535407623
 20
-993.730164794
 10
991.2080662674
 20
-995.9092874222
 10
990.1537768167
 20
-998.0445554783
 10
988.9142234945
 20
-1000.0882706026
 10
987.5170958737
 20
-1001.9947795762
 10
985.9936034766
 20
-1003.7214941391
 10
984.3777786059
 20
-1005.2298423412
 10
982.7057161191
 20
-1006.4861301762
 10
981.0147671293
 20
-1007.4622942498
 10
979.3427046425
 20
-1008.1365286697
 10
977.7268797718
 20
-1008.4937721531
 10
976.2033873747
 20
-1008.5260444708
 10
974.8062597539
 20
-1008.2326247126
 10
973.5667064317
 20
-1007.6200673911
 10
972.512416981
 20
-1006.7020560246
 10
971.6669424861
 20
-1005.4990974701
 10
971.04916945
 20
-1004.0380638338
 10
970.6728979015
 20
-1002.3515921928
 10
970.5465331252
 20
-1000.477355537
 10
970.6728979015
 20
-998.4572212159
 10
971.04916945
 20
-996.3363156923
 10
971.6669424861
 20
-994.1620164908
 10
972.512416981
 20
-991.9828938626
 10
973.5667064317
 20
-989.8476258064
 10
974.8062597539
 20
-987.8039106822
 10
976.2033873747
 20
-985.8974017086
 10
977.7268797718
 20
-984.1706871457
 10
979.3427046425
 20
-982.6623389436
 10
981.0147671293
 20
-981.4060511085
 10
982.7057161191
 20
-980.4298870349
 10
984.3777786059
 20
-979.755652615
 10
985.9936034766
 20
-979.3984091317
 10
987.5170958737
 20
-979.366136814
 10
988.9142234945
 20
-979.6595565721
 10
990.1537768167
 20
-980.2721138936
 10
991.2080662674
 20
-981.1901252601
 10
992.0535407623
 20
-982.3930838147
 10
992.6713137984
 20
-983.854117451
 10
993.0475853469
 20
-985.5405890919
 10
993.1739501232
 20
-987.4148257478
  0
LWPOLYLINE
  5
211
330
1F
100
AcDbEntity
  8
0
  6
Continuous
 62
     7
370
    25
100
AcDbPolyline
 90
       43
 70
   128
 43
0.0
 10
1143.8387150675
 20
-843.907694106
 10
1143.7123502913
 20
-845.927828427
 10
1143.3360787428
 20
-848.0487339507
 10
1142.7183057067
 20
-850.2230331522
 10
1141.8728312117
 20
-852.4021557803
 10
1140.8185417611
 20
-854.5374238365
 10
1139.5789884389
 20
-856.5811389608
 10
1138.1818608181
 20
-858.4876479344
 10
1136.658368421
 20
-860.2143624973
 10
1135.0425435503
 20
-861.7227106994
 10
1133.3704810635
 20
-862.9789985344
 10
1131.6795320736
 20
-863.955162608
 10
1130.0074695869
 20
-864.6293970279
 10
1128.3916447162
 20
-864.9866405113
 10
1126.8681523191
 20
-865.018912829
 10
1125.4710246982
 20
-864.7254930708
 10
1124.231471376
 20
-864.1129357493
 10
1123.1771819254
 20
-863.1949243828
 10
1122.3317074305
 20
-861.9919658283
 10
1121.7139343943
 20
-860.530932192
 10
1121.3376628458
 20
-858.844460551
 10
1121.2112980696
 20
-856.9702238952
 10
1121.3376628458
 20
-854.9500895741
 10
1121.7139343943
 20
-852.8291840505
 10
1122.3317074305
 20
-850.654884849
 10
1123.1771819254
 20
-848.4757622208
 10
1124.231471376
 20
-846.3404941646
 10
1125.4710246982
 20
-844.2967790403
 10
1126.8681523191
 20
-842.3902700667
 10
1128.3916447162
 20
-840.6635555039
 10
1130.0074695869
 20
-839.1552073017
 10
1131.6795320736
 20
-837.8989194667
 10
1133.3704810635
 20
-836.9227553931
 10
1135.0425435503
 20
-836.2485209732
 10
1136.658368421
 20
-835.8912774899
 10
1138.1818608181
 20
-835.8590051722
 10
1139.5789884389
 20
-836.1524249303
 10
1140.8185417611
 20
-836.7649822518
 10
1141.8728312117
 20
-837.6829936183
 10
1142.7183057067
 20
-838.8859521729
 10
1143.3360787428
 20
-840.3469858092
 10
1143.7123502913
 20
-842.0334574501
 10
1143.8387150675
 20
-843.907694106
  0
LWPOLYLINE
  5
212
330
1F
100
AcDbEntity
  8
0
  6
Continuous
 62
     7
370
    25
100
AcDbPolyline
 90
       43
 70
   128
 43
0.0
 10
1236.9546607102
 20
-642.154980733
 10
1236.8282959339
 20
-644.175115054
 10
1236.4520243854
 20
-646.2960205776
 10
1235.8342513493
 20
-648.4703197792
 10
1234.9887768544
 20
-650.6494424073
 10
1233.9344874037
 20
-652.7847104635
 10
1232.6949340815
 20
-654.8284255878
 10
1231.2978064607
 20
-656.7349345614
 10
1229.7743140636
 20
-658.4616491243
 10
1228.1584891929
 20
-659.9699973264
 10
1226.4864267061
 20
-661.2262851614
 10
1224.7954777163
 20
-662.202449235
 10
1223.1234152295
 20
-662.8766836549
 10
1221.5075903588
 20
-663.2339271382
 10
1219.9840979617
 20
-663.266199456
 10
1218.5869703409
 20
-662.9727796978
 10
1217.3474170187
 20
-662.3602223763
 10
1216.293127568
 20
-661.4422110098
 10
1215.4476530731
 20
-660.2392524552
 10
1214.829880037
 20
-658.7782188189
 10
1214.4536084885
 20
-657.091747178
 10
1214.3272437122
 20
-655.2175105221
 10
1214.4536084885
 20
-653.1973762011
 10
1214.829880037
 20
-651.0764706775
 10
1215.4476530731
 20
-648.9021714759
 10
1216.293127568
 20
-646.7230488478
 10
1217.3474170187
 20
-644.5877807916
 10
1218.5869703409
 20
-642.5440656673
 10
1219.9840979617
 20
-640.6375566937
 10
1221.5075903588
 20
-638.9108421308
 10
1223.1234152295
 20
-637.4024939287
 10
1224.7954777163
 20
-636.1462060937
 10
1226.4864267061
 20
-635.1700420201
 10
1228.1584891929
 20
-634.4958076002
 10
1229.7743140636
 20
-634.1385641169
 10
1231.2978064607
 20
-634.1062917991
 10
1232.6949340815
 20
-634.3997115573
 10
1233.9344874037
 20
-635.0122688788
 10
1234.9887768544
 20
-635.9302802453
 10
1235.8342513493
 20
-637.1332387999
 10
1236.4520243854
 20
-638.5942724362
 10
1236.8282959339
 20
-640.2807440771
 10
1236.9546607102
 20
-642.154980733
  0
LWPOLYLINE
  5
213
330
1F
100
AcDbEntity
  8
0
  6
Continuous
 62
     7
370
    25
100
AcDbPolyline
 90
       43
 70
   128
 43
0.0
 10
1200.5462086447
 20
-397.7232151858
 10
1200.4198438684
 20
-399.7433495068
 10
1200.0435723199
 20
-401.8642550305
 10
1199.4257992838
 20
-404.038554232
 10
1198.5803247889
 20
-406.2176768601
 10
1197.5260353382
 20
-408.3529449163
 10
1196.286482016
 20
-410.3966600406
 10
1194.8893543952
 20
-412.3031690142
 10
1193.3658619981
 20
-414.0298835771
 10
1191.7500371274
 20
-415.5382317792
 10
1190.0779746406
 20
-416.7945196142
 10
1188.3870256507
 20
-417.7706836878
 10
1186.714963164
 20
-418.4449181077
 10
1185.0991382933
 20
-418.8021615911
 10
1183.5756458962
 20
-418.8344339088
 10
1182.1785182754
 20
-418.5410141506
 10
1180.9389649532
 20
-417.9284568291
 10
1179.8846755025
 20
-417.0104454626
 10
1179.0392010076
 20
-415.8074869081
 10
1178.4214279715
 20
-414.3464532718
 10
1178.045156423
 20
-412.6599816308
 10
1177.9187916467
 20
-410.7857449749
 10
1178.045156423
 20
-408.7656106539
 10
1178.4214279715
 20
-406.6447051303
 10
1179.0392010076
 20
-404.4704059288
 10
1179.8846755025
 20
-402.2912833006
 10
1180.9389649532
 20
-400.1560152444
 10
1182.1785182754
 20
-398.1123001201
 10
1183.5756458962
 20
-396.2057911465
 10
1185.0991382933
 20
-394.4790765837
 10
1186.714963164
 20
-392.9707283815
 10
1188.3870256507
 20
-391.7144405465
 10
1190.0779746406
 20
-390.7382764729
 10
1191.7500371274
 20
-390.064042053
 10
1193.3658619981
 20
-389.7067985697
 10
1194.8893543952
 20
-389.674526252
 10
1196.286482016
 20
-389.9679460101
 10
1197.5260353382
 20
-390.5805033316
 10
1198.5803247889
 20
-391.4985146981
 10
1199.4257992838
 20
-392.7014732527
 10
1200.0435723199
 20
-394.162506889
 10
1200.4198438684
 20
-395.8489785299
 10
1200.5462086447
 20
-397.7232151858
  0
LWPOLYLINE
  5
214
330
1F
100
AcDbEntity
  8
0
  6
Continuous
 62
     7
370
    25
100
AcDbPolyline
 90
       43
 70
   128
 43
0.0
 10
1072.3831045546
 20
-364.1833431639
 10
1072.2567397783
 20
-366.203477485
 10
1071.8804682298
 20
-368.3243830086
 10
1071.2626951937
 20
-370.4986822101
 10
1070.4172206988
 20
-372.6778048383
 10
1069.3629312481
 20
-374.8130728945
 10
1068.1233779259
 20
-376.8567880187
 10
1066.7262503051
 20
-378.7632969923
 10
1065.202757908
 20
-380.4900115552
 10
1063.5869330373
 20
-381.9983597573
 10
1061.9148705505
 20
-383.2546475923
 10
1060.2239215607
 20
-384.230811666
 10
1058.5518590739
 20
-384.9050460859
 10
1056.9360342032
 20
-385.2622895692
 10
1055.4125418061
 20
-385.2945618869
 10
1054.0154141853
 20
-385.0011421287
 10
1052.7758608631
 20
-384.3885848072
 10
1051.7215714124
 20
-383.4705734407
 10
1050.8760969175
 20
-382.2676148862
 10
1050.2583238814
 20
-380.8065812499
 10
1049.8820523329
 20
-379.120109609
 10
1049.7556875566
 20
-377.2458729531
 10
1049.8820523329
 20
-375.225738632
 10
1050.2583238814
 20
-373.1048331084
 10
1050.8760969175
 20
-370.9305339069
 10
1051.7215714124
 20
-368.7514112787
 10
1052.7758608631
 20
-366.6161432225
 10
1054.0154141853
 20
-364.5724280983
 10
1055.4125418061
 20
-362.6659191247
 10
1056.9360342032
 20
-360.9392045618
 10
1058.5518590739
 20
-359.4308563597
 10
1060.2239215607
 20
-358.1745685247
 10
1061.9148705505
 20
-357.198404451
 10
1063.5869330373
 20
-356.5241700312
 10
1065.202757908
 20
-356.1669265478
 10
1066.7262503051
 20
-356.1346542301
 10
1068.1233779259
 20
-356.4280739883
 10
1069.3629312481
 20
-357.0406313098
 10
1070.4172206988
 20
-357.9586426763
 10
1071.2626951937
 20
-359.1616012308
 10
1071.8804682298
 20
-360.6226348671
 10
1072.2567397783
 20
-362.309106508
 10
1072.3831045546
 20
-364.1833431639
  0
LWPOLYLINE
  5
215
330
1F
100
AcDbEntity
  8
0
  6
Continuous
 62
     7
370
    25
100
AcDbPolyline
 90
       43
 70
   128
 43
0.0
 10
993.1739501232
 20
-395.4227371305
 10
993.047585347
 20
-397.4428714515
 10
992.6713137985
 20
-399.5637769752
 10
992.0535407624
 20
-401.7380761767
 10
991.2080662674
 20
-403.9171988049
 10
990.1537768168
 20
-406.0524668611
 10
988.9142234946
 20
-408.0961819853
 10
987.5170958737
 20
-410.0026909589
 10
985.9936034766
 20
-411.7294055218
 10
984.377778606
 20
-413.2377537239
 10
982.7057161192
 20
-414.4940415589
 10
981.0147671293
 20
-415.4702056326
 10
979.3427046425
 20
-416.1444400524
 10
977.7268797718
 20
-416.5016835358
 10
976.2033873748
 20
-416.5339558535
 10
974.8062597539
 20
-416.2405360953
 10
973.5667064317
 20
-415.6279787738
 10
972.5124169811
 20
-414.7099674073
 10
971.6669424861
 20
-413.5070088528
 10
971.04916945
 20
-412.0459752165
 10
970.6728979015
 20
-410.3595035756
 10
970.5465331253
 20
-408.4852669197
 10
970.6728979015
 20
-406.4651325986
 10
971.04916945
 20
-404.344227075
 10
971.6669424861
 20
-402.1699278735
 10
972.5124169811
 20
-399.9908052453
 10
973.5667064317
 20
-397.8555371891
 10
974.8062597539
 20
-395.8118220649
 10
976.2033873748
 20
-393.9053130913
 10
977.7268797718
 20
-392.1785985284
 10
979.3427046425
 20
-390.6702503263
 10
981.0147671293
 20
-389.4139624912
 10
982.7057161192
 20
-388.4377984176
 10
984.377778606
 20
-387.7635639977
 10
985.9936034767
 20
-387.4063205144
 10
987.5170958737
 20
-387.3740481967
 10
988.9142234946
 20
-387.6674679548
 10
990.1537768168
 20
-388.2800252763
 10
991.2080662674
 20
-389.1980366429
 10
992.0535407624
 20
-390.4009951974
 10
992.6713137985
 20
-391.8620288337
 10
993.047585347
 20
-393.5485004746
 10
993.1739501232
 20
-395.4227371305
  0
LWPOLYLINE
  5
216
330
1F
100
AcDbEntity
  8
0
  6
Continuous
 62
     7
370
    25
100
AcDbPolyline
 90
      192
 70
   128
 43
0.0
 10
1210.6092853381
 20
-565.8960342463
 10
1210.4855245322
 20
-574.6554905953
 10
1210.1143760321
 20
-583.5483598175
 10
1209.4962414448
 20
-592.5650192394
 10
1208.631789633
 20
-601.6957122387
 10
1207.5219559909
 20
-610.9305588008
 10
1206.1679414317
 20
-620.2595662104
 10
1204.5712110891
 20
-629.6726398636
 10
1202.7334927309
 20
-639.1595941916
 10
1200.65677489
 20
-648.7101636815
 10
1198.3433047128
 20
-658.3140139849
 10
1195.7955855271
 20
-667.9607530997
 10
1193.0163741337
 20
-677.6399426155
 10
1190.0086778234
 20
-687.3411090084
 10
1186.7757511228
 20
-697.0537549739
 10
1183.3210922727
 20
-706.767370786
 10
1179.6484394426
 20
-716.4714456692
 10
1175.761766686
 20
-726.155479172
 10
1171.6652796404
 20
-735.8089925288
 10
1167.3634109758
 20
-745.4215399991
 10
1162.8608155991
 20
-754.9827201699
 10
1158.1623656166
 20
-764.4821872112
 10
1153.2731450622
 20
-773.9096620708
 10
1148.1984443963
 20
-783.2549435965
 10
1142.9437547811
 20
-792.5079195751
 10
1137.5147621387
 20
-801.6585776737
 10
1131.9173409985
 20
-810.6970162744
 10
1126.1575481409
 20
-819.6134551882
 10
1120.2416160432
 20
-828.3982462378
 10
1114.1759461355
 20
-837.0418836976
 10
1107.9671018744
 20
-845.5350145795
 10
1101.6218016404
 20
-853.8684487536
 10
1095.1469114687
 20
-862.0331688923
 10
1088.5494376189
 20
-870.0203402277
 10
1081.8365189948
 20
-877.8213201117
 10
1075.0154194187
 20
-885.4276673674
 10
1068.093519772
 20
-892.8311514235
 10
1061.0783100086
 20
-900.02376122
 10
1053.9773810498
 20
-906.9977138769
 10
1046.7984165709
 20
-913.7454631156
 10
1039.549184687
 20
-920.2597074246
 10
1032.2375295468
 20
-926.5333979603
 10
1024.8713628454
 20
-932.5597461741
 10
1017.4586552629
 20
-938.3322311582
 10
1010.0074278397
 20
-943.8446067017
 10
1002.5257432973
 20
-949.0909080491
 10
995.0216973138
 20
-954.0654583551
 10
987.5034097637
 20
-958.7628748268
 10
979.9790159321
 20
-963.1780745486
 10
972.4566577112
 20
-967.3062799821
 10
964.9444747907
 20
-971.1430241355
 10
957.45059585
 20
-974.6841553978
 10
949.9831297623
 20
-977.9258420303
 10
942.5501568204
 20
-980.8645763136
 10
935.1597199931
 20
-983.4971783425
 10
927.8198162224
 20
-985.8207994673
 10
920.5383877703
 20
-987.8329253761
 10
913.3233136244
 20
-989.5313788154
 10
906.1824009727
 20
-990.9143219463
 10
899.1233767555
 20
-991.9802583325
 10
892.1538793045
 20
-992.7280345604
 10
885.2814500773
 20
-993.1568414866
 10
878.5135254974
 20
-993.2662151136
 10
871.8574289075
 20
-993.0560370918
 10
865.3203626446
 20
-992.5265348479
 10
858.9094002473
 20
-991.6782813383
 10
852.6314788015
 20
-990.5121944295
 10
846.4933914338
 20
-989.0295359047
 10
840.5017799613
 20
-987.2319100986
 10
834.6631277042
 20
-985.1212621614
 10
828.9837524708
 20
-982.6998759538
 10
823.4697997213
 20
-979.9703715762
 10
818.1272359177
 20
-976.935702533
 10
812.9618420676
 20
-973.5991525369
 10
807.9792074693
 20
-969.9643319561
 10
803.1847236634
 20
-966.035173907
 10
798.5835785987
 20
-961.8159299989
 10
794.1807510189
 20
-957.311165733
 10
789.981005075
 20
-952.5257555626
 10
785.9888851701
 20
-947.4648776183
 10
782.2087110424
 20
-942.1340081052
 10
778.6445730905
 20
-936.5389153769
 10
775.3003279476
 20
-930.6856536945
 10
772.1795943086
 20
-924.5805566745
 10
769.2857490138
 20
-918.2302304361
 10
766.6219233954
 20
-911.6415464529
 10
764.1909998892
 20
-904.8216341172
 10
761.9956089152
 20
-897.7778730257
 10
760.038126032
 20
-890.5178849943
 10
758.3206693657
 20
-883.0495258108
 10
756.845097318
 20
-875.3808767342
 10
755.6130065556
 20
-867.5202357508
 10
754.6257302823
 20
-859.4761085944
 10
753.8843367964
 20
-851.2571995434
 10
753.3896283347
 20
-842.8724020016
 10
753.1421402046
 20
-834.3307888749
 10
753.1421402046
 20
-825.6416027546
 10
753.3896283347
 20
-816.8142459152
 10
753.8843367964
 20
-807.8582701414
 10
754.6257302823
 20
-798.7833663919
 10
755.6130065556
 20
-789.5993543135
 10
756.845097318
 20
-780.3161716155
 10
758.3206693657
 20
-770.9438633161
 10
760.038126032
 20
-761.4925708734
 10
761.9956089152
 20
-751.9725212119
 10
764.1909998892
 20
-742.3940156554
 10
766.6219233954
 20
-732.7674187814
 10
769.2857490138
 20
-723.1031472049
 10
772.1795943086
 20
-713.4116583078
 10
775.3003279476
 20
-703.7034389228
 10
778.6445730905
 20
-693.988993986
 10
782.2087110424
 20
-684.2788351702
 10
785.9888851701
 20
-674.58346951
 10
789.981005075
 20
-664.9133880332
 10
794.1807510189
 20
-655.2790544082
 10
798.5835785987
 20
-645.6908936218
 10
803.1847236634
 20
-636.159280699
 10
807.9792074693
 20
-626.694529476
 10
812.9618420676
 20
-617.3068814404
 10
818.1272359177
 20
-608.0064946489
 10
823.4697997213
 20
-598.8034327358
 10
828.9837524708
 20
-589.7076540236
 10
834.6631277042
 20
-580.729000747
 10
840.5017799613
 20
-571.8771884034
 10
846.4933914338
 20
-563.1617952399
 10
852.6314788015
 20
-554.592251889
 10
858.9094002473
 20
-546.177831164
 10
865.3203626446
 20
-537.9276380252
 10
871.8574289075
 20
-529.850599728
 10
878.5135254974
 20
-521.9554561626
 10
885.2814500773
 20
-514.250750397
 10
892.1538793045
 20
-506.7448194332
 10
899.1233767555
 20
-499.4457851853
 10
906.1824009727
 20
-492.3615456917
 10
913.3233136244
 20
-485.4997665688
 10
920.5383877703
 20
-478.8678727157
 10
927.8198162224
 20
-472.4730402808
 10
935.1597199931
 20
-466.3221888962
 10
942.5501568204
 20
-460.4219741904
 10
949.9831297623
 20
-454.7787805864
 10
957.45059585
 20
-449.3987143932
 10
964.9444747907
 20
-444.2875971989
 10
972.4566577112
 20
-439.4509595705
 10
979.9790159321
 20
-434.8940350703
 10
987.5034097637
 20
-430.6217545922
 10
995.0216973138
 20
-426.6387410268
 10
1002.5257432974
 20
-422.9493042583
 10
1010.0074278397
 20
-419.5574365017
 10
1017.4586552629
 20
-416.4668079824
 10
1024.8713628454
 20
-413.6807629652
 10
1032.2375295468
 20
-411.2023161353
 10
1039.549184687
 20
-409.0341493361
 10
1046.7984165709
 20
-407.1786086678
 10
1053.9773810498
 20
-405.6377019483
 10
1061.0783100086
 20
-404.4130965405
 10
1068.093519772
 20
-403.5061175487
 10
1075.0154194187
 20
-402.9177463842
 10
1081.8365189948
 20
-402.6486197036
 10
1088.5494376189
 20
-402.6990287196
 10
1095.1469114687
 20
-403.0689188866
 10
1101.6218016404
 20
-403.7578899587
 10
1107.9671018744
 20
-404.7651964236
 10
1114.1759461355
 20
-406.0897483092
 10
1120.2416160432
 20
-407.7301123624
 10
1126.1575481409
 20
-409.6845136009
 10
1131.9173409985
 20
-411.950837233
 10
1137.5147621387
 20
-414.5266309466
 10
1142.9437547811
 20
-417.4091075623
 10
1148.1984443963
 20
-420.5951480494
 10
1153.2731450622
 20
-424.0813049013
 10
1158.1623656166
 20
-427.8638058654
 10
1162.8608155991
 20
-431.9385580252
 10
1167.3634109758
 20
-436.3011522291
 10
1171.6652796404
 20
-440.9468678612
 10
1175.761766686
 20
-445.8706779497
 10
1179.6484394426
 20
-451.067254606
 10
1183.3210922727
 20
-456.5309747901
 10
1186.7757511228
 20
-462.2559263949
 10
1190.0086778234
 20
-468.2359146437
 10
1193.0163741337
 20
-474.4644687934
 10
1195.7955855271
 20
-480.9348491358
 10
1198.3433047128
 20
-487.6400542911
 10
1200.65677489
 20
-494.5728287833
 10
1202.7334927309
 20
-501.7256708913
 10
1204.5712110891
 20
-509.0908407663
 10
1206.1679414317
 20
-516.6603688069
 10
1207.5219559909
 20
-524.4260642825
 10
1208.631789633
 20
-532.3795241965
 10
1209.4962414448
 20
-540.5121423785
 10
1210.1143760321
 20
-548.8151187972
 10
1210.4855245322
 20
-557.2794690823
 10
1210.6092853381
 20
-565.8960342463
  0
LWPOLYLINE
  5
217
330
1F
100
AcDbEntity
  8
0
  6
Continuous
 62
     7
370
    25
100
AcDbPolyline
 90
       43
 70
   128
 43
0.0
 10
1236.9546607102
 20
-459.2193648147
 10
1236.8282959339
 20
-461.2394991357
 10
1236.4520243854
 20
-463.3604046594
 10
1235.8342513493
 20
-465.5347038609
 10
1234.9887768544
 20
-467.7138264891
 10
1233.9344874037
 20
-469.8490945452
 10
1232.6949340815
 20
-471.8928096695
 10
1231.2978064607
 20
-473.7993186431
 10
1229.7743140636
 20
-475.526033206
 10
1228.1584891929
 20
-477.0343814081
 10
1226.4864267061
 20
-478.2906692431
 10
1224.7954777163
 20
-479.2668333167
 10
1223.1234152295
 20
-479.9410677366
 10
1221.5075903588
 20
-480.29831122
 10
1219.9840979617
 20
-480.3305835377
 10
1218.5869703409
 20
-480.0371637795
 10
1217.3474170187
 20
-479.424606458
 10
1216.293127568
 20
-478.5065950915
 10
1215.4476530731
 20
-477.303636537
 10
1214.829880037
 20
-475.8426029007
 10
1214.4536084885
 20
-474.1561312597
 10
1214.3272437122
 20
-472.2818946039
 10
1214.4536084885
 20
-470.2617602828
 10
1214.829880037
 20
-468.1408547592
 10
1215.4476530731
 20
-465.9665555577
 10
1216.293127568
 20
-463.7874329295
 10
1217.3474170187
 20
-461.6521648733
 10
1218.5869703409
 20
-459.6084497491
 10
1219.9840979617
 20
-457.7019407755
 10
1221.5075903588
 20
-455.9752262126
 10
1223.1234152295
 20
-454.4668780105
 10
1224.7954777163
 20
-453.2105901754
 10
1226.4864267061
 20
-452.2344261018
 10
1228.1584891929
 20
-451.5601916819
 10
1229.7743140636
 20
-451.2029481986
 10
1231.2978064607
 20
-451.1706758809
 10
1232.6949340815
 20
-451.464095639
 10
1233.9344874037
 20
-452.0766529605
 10
1234.9887768544
 20
-452.994664327
 10
1235.8342513493
 20
-454.1976228816
 10
1236.4520243854
 20
-455.6586565179
 10
1236.8282959339
 20
-457.3451281588
 10
1236.9546607102
 20
-459.2193648147
  0
LWPOLYLINE
  5
218
330
1F
100
AcDbEntity
  8
0
  6
Continuous
 62
     7
370
    25
100
AcDbPolyline
 90
       43
 70
   128
 43
0.0
 10
1143.8387150676
 20
-364.9760338791
 10
1143.7123502913
 20
-366.9961682001
 10
1143.3360787428
 20
-369.1170737238
 10
1142.7183057067
 20
-371.2913729253
 10
1141.8728312118
 20
-373.4704955534
 10
1140.8185417611
 20
-375.6057636096
 10
1139.5789884389
 20
-377.6494787339
 10
1138.1818608181
 20
-379.5559877075
 10
1136.658368421
 20
-381.2827022704
 10
1135.0425435503
 20
-382.7910504725
 10
1133.3704810635
 20
-384.0473383075
 10
1131.6795320737
 20
-385.0235023811
 10
1130.0074695869
 20
-385.697736801
 10
1128.3916447162
 20
-386.0549802844
 10
1126.8681523191
 20
-386.0872526021
 10
1125.4710246983
 20
-385.7938328439
 10
1124.2314713761
 20
-385.1812755224
 10
1123.1771819254
 20
-384.2632641559
 10
1122.3317074305
 20
-383.0603056014
 10
1121.7139343944
 20
-381.599271965
 10
1121.3376628459
 20
-379.9128003241
 10
1121.2112980696
 20
-378.0385636682
 10
1121.3376628459
 20
-376.0184293472
 10
1121.7139343944
 20
-373.8975238236
 10
1122.3317074305
 20
-371.7232246221
 10
1123.1771819254
 20
-369.5441019939
 10
1124.2314713761
 20
-367.4088339377
 10
1125.4710246983
 20
-365.3651188134
 10
1126.8681523191
 20
-363.4586098398
 10
1128.3916447162
 20
-361.731895277
 10
1130.0074695869
 20
-360.2235470748
 10
1131.6795320737
 20
-358.9672592398
 10
1133.3704810635
 20
-357.9910951662
 10
1135.0425435503
 20
-357.3168607463
 10
1136.658368421
 20
-356.959617263
 10
1138.1818608181
 20
-356.9273449453
 10
1139.5789884389
 20
-357.2207647034
 10
1140.8185417611
 20
-357.8333220249
 10
1141.8728312118
 20
-358.7513333914
 10
1142.7183057067
 20
-359.954291946
 10
1143.3360787428
 20
-361.4153255823
 10
1143.7123502913
 20
-363.1017972232
 10
1143.8387150676
 20
-364.9760338791
  0
LWPOLYLINE
  5
219
330
1F
100
AcDbEntity
  8
0
  6
Continuous
 62
     7
370
    25
100
AcDbPolyline
 90
       43
 70
   128
 43
0.0
 10
1249.5001583034
 20
-543.4448111713
 10
1249.3737935271
 20
-545.4649454923
 10
1248.9975219786
 20
-547.585851016
 10
1248.3797489425
 20
-549.7601502175
 10
1247.5342744476
 20
-551.9392728456
 10
1246.4799849969
 20
-554.0745409018
 10
1245.2404316747
 20
-556.1182560261
 10
1243.8433040539
 20
-558.0247649997
 10
1242.3198116568
 20
-559.7514795626
 10
1240.7039867861
 20
-561.2598277647
 10
1239.0319242993
 20
-562.5161155997
 10
1237.3409753095
 20
-563.4922796733
 10
1235.6689128227
 20
-564.1665140932
 10
1234.053087952
 20
-564.5237575766
 10
1232.5295955549
 20
-564.5560298943
 10
1231.1324679341
 20
-564.2626101361
 10
1229.8929146119
 20
-563.6500528146
 10
1228.8386251612
 20
-562.7320414481
 10
1227.9931506663
 20
-561.5290828936
 10
1227.3753776302
 20
-560.0680492573
 10
1226.9991060817
 20
-558.3815776163
 10
1226.8727413054
 20
-556.5073409605
 10
1226.9991060817
 20
-554.4872066394
 10
1227.3753776302
 20
-552.3663011158
 10
1227.9931506663
 20
-550.1920019143
 10
1228.8386251612
 20
-548.0128792861
 10
1229.8929146119
 20
-545.8776112299
 10
1231.1324679341
 20
-543.8338961056
 10
1232.5295955549
 20
-541.927387132
 10
1234.053087952
 20
-540.2006725692
 10
1235.6689128227
 20
-538.692324367
 10
1237.3409753095
 20
-537.436036532
 10
1239.0319242993
 20
-536.4598724584
 10
1240.7039867861
 20
-535.7856380385
 10
1242.3198116568
 20
-535.4283945552
 10
1243.8433040539
 20
-535.3961222375
 10
1245.2404316747
 20
-535.6895419956
 10
1246.4799849969
 20
-536.3020993171
 10
1247.5342744476
 20
-537.2201106836
 10
1248.3797489425
 20
-538.4230692382
 10
1248.9975219786
 20
-539.8841028745
 10
1249.3737935271
 20
-541.5705745154
 10
1249.5001583034
 20
-543.4448111713
  0
LWPOLYLINE
  5
21A
330
1F
100
AcDbEntity
  8
0
  6
Continuous
 62
     7
370
    25
100
AcDbPolyline
 90
       43
 70
   128
 43
0.0
 10
1200.5462086446
 20
-745.6874343488
 10
1200.4198438684
 20
-747.7075686699
 10
1200.0435723199
 20
-749.8284741935
 10
1199.4257992838
 20
-752.002773395
 10
1198.5803247888
 20
-754.1818960232
 10
1197.5260353382
 20
-756.3171640794
 10
1196.286482016
 20
-758.3608792037
 10
1194.8893543952
 20
-760.2673881773
 10
1193.3658619981
 20
-761.9941027401
 10
1191.7500371274
 20
-763.5024509423
 10
1190.0779746406
 20
-764.7587387773
 10
1188.3870256507
 20
-765.7349028509
 10
1186.714963164
 20
-766.4091372708
 10
1185.0991382933
 20
-766.7663807541
 10
1183.5756458962
 20
-766.7986530718
 10
1182.1785182753
 20
-766.5052333137
 10
1180.9389649531
 20
-765.8926759922
 10
1179.8846755025
 20
-764.9746646257
 10
1179.0392010075
 20
-763.7717060711
 10
1178.4214279714
 20
-762.3106724348
 10
1178.0451564229
 20
-760.6242007939
 10
1177.9187916467
 20
-758.749964138
 10
1178.0451564229
 20
-756.729829817
 10
1178.4214279714
 20
-754.6089242933
 10
1179.0392010075
 20
-752.4346250918
 10
1179.8846755025
 20
-750.2555024637
 10
1180.9389649531
 20
-748.1202344075
 10
1182.1785182753
 20
-746.0765192832
 10
1183.5756458962
 20
-744.1700103096
 10
1185.0991382933
 20
-742.4432957467
 10
1186.714963164
 20
-740.9349475446
 10
1188.3870256507
 20
-739.6786597096
 10
1190.0779746406
 20
-738.702495636
 10
1191.7500371274
 20
-738.0282612161
 10
1193.3658619981
 20
-737.6710177327
 10
1194.8893543952
 20
-737.638745415
 10
1196.286482016
 20
-737.9321651732
 10
1197.5260353382
 20
-738.5447224947
 10
1198.5803247888
 20
-739.4627338612
 10
1199.4257992838
 20
-740.6656924157
 10
1200.0435723199
 20
-742.126726052
 10
1200.4198438684
 20
-743.813197693
 10
1200.5462086446
 20
-745.6874343488
  0
LWPOLYLINE
  5
21B
330
1F
100
AcDbEntity
  8
0
  6
Continuous
 62
     7
370
    25
100
AcDbPolyline
 90
       43
 70
   128
 43
0.0
 10
1072.3831045546
 20
-927.2012766386
 10
1072.2567397783
 20
-929.2214109596
 10
1071.8804682298
 20
-931.3423164832
 10
1071.2626951937
 20
-933.5166156848
 10
1070.4172206987
 20
-935.6957383129
 10
1069.3629312481
 20
-937.8310063691
 10
1068.1233779259
 20
-939.8747214934
 10
1066.7262503051
 20
-941.781230467
 10
1065.202757908
 20
-943.5079450299
 10
1063.5869330373
 20
-945.016293232
 10
1061.9148705505
 20
-946.272581067
 10
1060.2239215606
 20
-947.2487451406
 10
1058.5518590739
 20
-947.9229795605
 10
1056.9360342032
 20
-948.2802230439
 10
1055.4125418061
 20
-948.3124953616
 10
1054.0154141852
 20
-948.0190756034
 10
1052.775860863
 20
-947.4065182819
 10
1051.7215714124
 20
-946.4885069154
 10
1050.8760969175
 20
-945.2855483609
 10
1050.2583238813
 20
-943.8245147245
 10
1049.8820523328
 20
-942.1380430836
 10
1049.7556875566
 20
-940.2638064277
 10
1049.8820523328
 20
-938.2436721067
 10
1050.2583238813
 20
-936.1227665831
 10
1050.8760969175
 20
-933.9484673816
 10
1051.7215714124
 20
-931.7693447534
 10
1052.775860863
 20
-929.6340766972
 10
1054.0154141852
 20
-927.5903615729
 10
1055.4125418061
 20
-925.6838525993
 10
1056.9360342032
 20
-923.9571380365
 10
1058.5518590739
 20
-922.4487898343
 10
1060.2239215606
 20
-921.1925019993
 10
1061.9148705505
 20
-920.2163379257
 10
1063.5869330373
 20
-919.5421035058
 10
1065.202757908
 20
-919.1848600225
 10
1066.7262503051
 20
-919.1525877048
 10
1068.1233779259
 20
-919.4460074629
 10
1069.3629312481
 20
-920.0585647844
 10
1070.4172206987
 20
-920.9765761509
 10
1071.2626951937
 20
-922.1795347055
 10
1071.8804682298
 20
-923.6405683418
 10
1072.2567397783
 20
-925.3270399827
 10
1072.3831045546
 20
-927.2012766386
  0
LWPOLYLINE
  5
21C
330
1F
100
AcDbEntity
  8
0
  6
Continuous
 62
     7
370
    25
100
AcDbPolyline
 90
       43
 70
   128
 43
0.0
 10
913.9647956918
 20
-1018.6542197144
 10
913.8384309156
 20
-1020.6743540354
 10
913.4621593671
 20
-1022.7952595591
 10
912.844386331
 20
-1024.9695587606
 10
911.998911836
 20
-1027.1486813887
 10
910.9446223854
 20
-1029.2839494449
 10
909.7050690632
 20
-1031.3276645692
 10
908.3079414423
 20
-1033.2341735428
 10
906.7844490452
 20
-1034.9608881057
 10
905.1686241745
 20
-1036.4692363078
 10
903.4965616878
 20
-1037.7255241428
 10
901.8056126979
 20
-1038.7016882164
 10
900.1335502111
 20
-1039.3759226363
 10
898.5177253404
 20
-1039.7331661197
 10
896.9942329434
 20
-1039.7654384374
 10
895.5971053225
 20
-1039.4720186792
 10
894.3575520003
 20
-1038.8594613577
 10
893.3032625497
 20
-1037.9414499912
 10
892.4577880547
 20
-1036.7384914367
 10
891.8400150186
 20
-1035.2774578004
 10
891.4637434701
 20
-1033.5909861594
 10
891.3373786939
 20
-1031.7167495035
 10
891.4637434701
 20
-1029.6966151825
 10
891.8400150186
 20
-1027.5757096589
 10
892.4577880547
 20
-1025.4014104574
 10
893.3032625497
 20
-1023.2222878292
 10
894.3575520003
 20
-1021.087019773
 10
895.5971053225
 20
-1019.0433046487
 10
896.9942329434
 20
-1017.1367956751
 10
898.5177253404
 20
-1015.4100811123
 10
900.1335502111
 20
-1013.9017329101
 10
901.8056126979
 20
-1012.6454450751
 10
903.4965616878
 20
-1011.6692810015
 10
905.1686241745
 20
-1010.9950465816
 10
906.7844490452
 20
-1010.6378030983
 10
908.3079414423
 20
-1010.6055307806
 10
909.7050690632
 20
-1010.8989505387
 10
910.9446223854
 20
-1011.5115078602
 10
911.998911836
 20
-1012.4295192267
 10
912.844386331
 20
-1013.6324777813
 10
913.4621593671
 20
-1015.0935114176
 10
913.8384309156
 20
-1016.7799830585
 10
913.9647956918
 20
-1018.6542197144
  0
LWPOLYLINE
  5
21D
330
1F
100
AcDbEntity
  8
0
  6
Continuous
 62
     7
370
    25
100
AcDbPolyline
 90
       43
 70
   128
 43
0.0
 10
785.8016916018
 20
-985.1143476925
 10
785.6753268255
 20
-987.1344820136
 10
785.299055277
 20
-989.2553875372
 10
784.6812822409
 20
-991.4296867387
 10
783.8358077459
 20
-993.6088093669
 10
782.7815182953
 20
-995.7440774231
 10
781.5419649731
 20
-997.7877925473
 10
780.1448373523
 20
-999.6943015209
 10
778.6213449552
 20
-1001.4210160838
 10
777.0055200845
 20
-1002.9293642859
 10
775.3334575977
 20
-1004.1856521209
 10
773.6425086078
 20
-1005.1618161946
 10
771.9704461211
 20
-1005.8360506145
 10
770.3546212504
 20
-1006.1932940978
 10
768.8311288533
 20
-1006.2255664155
 10
767.4340012324
 20
-1005.9321466573
 10
766.1944479102
 20
-1005.3195893358
 10
765.1401584596
 20
-1004.4015779693
 10
764.2946839647
 20
-1003.1986194148
 10
763.6769109285
 20
-1001.7375857785
 10
763.30063938
 20
-1000.0511141376
 10
763.1742746038
 20
-998.1768774817
 10
763.30063938
 20
-996.1567431606
 10
763.6769109285
 20
-994.035837637
 10
764.2946839647
 20
-991.8615384355
 10
765.1401584596
 20
-989.6824158073
 10
766.1944479103
 20
-987.5471477511
 10
767.4340012324
 20
-985.5034326269
 10
768.8311288533
 20
-983.5969236533
 10
770.3546212504
 20
-981.8702090904
 10
771.9704461211
 20
-980.3618608883
 10
773.6425086078
 20
-979.1055730533
 10
775.3334575977
 20
-978.1294089796
 10
777.0055200845
 20
-977.4551745598
 10
778.6213449552
 20
-977.0979310764
 10
780.1448373523
 20
-977.0656587587
 10
781.5419649731
 20
-977.3590785169
 10
782.7815182953
 20
-977.9716358384
 10
783.8358077459
 20
-978.8896472049
 10
784.6812822409
 20
-980.0926057594
 10
785.299055277
 20
-981.5536393957
 10
785.6753268255
 20
-983.2401110366
 10
785.8016916018
 20
-985.1143476925
  0
LWPOLYLINE
  5
21E
330
1F
100
AcDbEntity
  8
0
  6
Continuous
 62
     7
370
    25
100
AcDbPolyline
 90
       43
 70
   128
 43
0.0
 10
736.847741943
 20
-839.392751707
 10
736.7213771668
 20
-841.4128860281
 10
736.3451056183
 20
-843.5337915517
 10
735.7273325822
 20
-845.7080907532
 10
734.8818580872
 20
-847.8872133814
 10
733.8275686366
 20
-850.0224814376
 10
732.5880153144
 20
-852.0661965618
 10
731.1908876936
 20
-853.9727055354
 10
729.6673952965
 20
-855.6994200983
 10
728.0515704258
 20
-857.2077683004
 10
726.379507939
 20
-858.4640561354
 10
724.6885589491
 20
-859.4402202091
 10
723.0164964624
 20
-860.1144546289
 10
721.4006715917
 20
-860.4716981123
 10
719.8771791946
 20
-860.50397043
 10
718.4800515737
 20
-860.2105506718
 10
717.2404982515
 20
-859.5979933503
 10
716.1862088009
 20
-858.6799819838
 10
715.340734306
 20
-857.4770234293
 10
714.7229612698
 20
-856.015989793
 10
714.3466897213
 20
-854.3295181521
 10
714.2203249451
 20
-852.4552814962
 10
714.3466897213
 20
-850.4351471751
 10
714.7229612698
 20
-848.3142416515
 10
715.340734306
 20
-846.13994245
 10
716.1862088009
 20
-843.9608198218
 10
717.2404982515
 20
-841.8255517656
 10
718.4800515737
 20
-839.7818366414
 10
719.8771791946
 20
-837.8753276678
 10
721.4006715917
 20
-836.1486131049
 10
723.0164964624
 20
-834.6402649028
 10
724.6885589491
 20
-833.3839770678
 10
726.379507939
 20
-832.4078129941
 10
728.0515704258
 20
-831.7335785743
 10
729.6673952965
 20
-831.3763350909
 10
731.1908876936
 20
-831.3440627732
 10
732.5880153144
 20
-831.6374825314
 10
733.8275686366
 20
-832.2500398529
 10
734.8818580872
 20
-833.1680512194
 10
735.7273325822
 20
-834.3710097739
 10
736.3451056183
 20
-835.8320434102
 10
736.7213771668
 20
-837.5185150511
 10
736.847741943
 20
-839.392751707
  0
LWPOLYLINE
  5
21F
330
1F
100
AcDbEntity
  8
0
  6
Continuous
 62
     7
370
    25
100
AcDbPolyline
 90
       43
 70
   128
 43
0.0
 10
785.8016916018
 20
-637.1501285295
 10
785.6753268255
 20
-639.1702628505
 10
785.299055277
 20
-641.2911683741
 10
784.6812822409
 20
-643.4654675756
 10
783.835807746
 20
-645.6445902038
 10
782.7815182953
 20
-647.77985826
 10
781.5419649731
 20
-649.8235733843
 10
780.1448373523
 20
-651.7300823579
 10
778.6213449552
 20
-653.4567969207
 10
777.0055200845
 20
-654.9651451229
 10
775.3334575977
 20
-656.2214329579
 10
773.6425086079
 20
-657.1975970315
 10
771.9704461211
 20
-657.8718314514
 10
770.3546212504
 20
-658.2290749347
 10
768.8311288533
 20
-658.2613472524
 10
767.4340012325
 20
-657.9679274943
 10
766.1944479103
 20
-657.3553701728
 10
765.1401584596
 20
-656.4373588063
 10
764.2946839647
 20
-655.2344002517
 10
763.6769109286
 20
-653.7733666154
 10
763.3006393801
 20
-652.0868949745
 10
763.1742746038
 20
-650.2126583186
 10
763.3006393801
 20
-648.1925239976
 10
763.6769109286
 20
-646.071618474
 10
764.2946839647
 20
-643.8973192724
 10
765.1401584596
 20
-641.7181966443
 10
766.1944479103
 20
-639.5829285881
 10
767.4340012325
 20
-637.5392134638
 10
768.8311288533
 20
-635.6327044902
 10
770.3546212504
 20
-633.9059899273
 10
771.9704461211
 20
-632.3976417252
 10
773.6425086079
 20
-631.1413538902
 10
775.3334575977
 20
-630.1651898166
 10
777.0055200845
 20
-629.4909553967
 10
778.6213449552
 20
-629.1337119133
 10
780.1448373523
 20
-629.1014395956
 10
781.5419649731
 20
-629.3948593538
 10
782.7815182953
 20
-630.0074166753
 10
783.835807746
 20
-630.9254280418
 10
784.6812822409
 20
-632.1283865963
 10
785.299055277
 20
-633.5894202327
 10
785.6753268255
 20
-635.2758918736
 10
785.8016916018
 20
-637.1501285295
  0
LWPOLYLINE
  5
220
330
1F
100
AcDbEntity
  8
0
  6
Continuous
 62
     7
370
    25
100
AcDbPolyline
 90
       43
 70
   128
 43
0.0
 10
913.9647956919
 20
-455.6362862397
 10
913.8384309156
 20
-457.6564205608
 10
913.4621593671
 20
-459.7773260844
 10
912.844386331
 20
-461.9516252859
 10
911.9989118361
 20
-464.1307479141
 10
910.9446223854
 20
-466.2660159703
 10
909.7050690632
 20
-468.3097310945
 10
908.3079414424
 20
-470.2162400681
 10
906.7844490453
 20
-471.942954631
 10
905.1686241746
 20
-473.4513028331
 10
903.4965616878
 20
-474.7075906682
 10
901.8056126979
 20
-475.6837547418
 10
900.1335502112
 20
-476.3579891617
 10
898.5177253405
 20
-476.715232645
 10
896.9942329434
 20
-476.7475049627
 10
895.5971053226
 20
-476.4540852046
 10
894.3575520004
 20
-475.8415278831
 10
893.3032625497
 20
-474.9235165165
 10
892.4577880548
 20
-473.720557962
 10
891.8400150187
 20
-472.2595243257
 10
891.4637434702
 20
-470.5730526848
 10
891.3373786939
 20
-468.6988160289
 10
891.4637434702
 20
-466.6786817079
 10
891.8400150187
 20
-464.5577761842
 10
892.4577880548
 20
-462.3834769827
 10
893.3032625497
 20
-460.2043543545
 10
894.3575520004
 20
-458.0690862983
 10
895.5971053226
 20
-456.0253711741
 10
896.9942329434
 20
-454.1188622005
 10
898.5177253405
 20
-452.3921476376
 10
900.1335502112
 20
-450.8837994355
 10
901.8056126979
 20
-449.6275116005
 10
903.4965616878
 20
-448.6513475268
 10
905.1686241746
 20
-447.977113107
 10
906.7844490453
 20
-447.6198696236
 10
908.3079414424
 20
-447.5875973059
 10
909.7050690632
 20
-447.8810170641
 10
910.9446223854
 20
-448.4935743856
 10
911.9989118361
 20
-449.4115857521
 10
912.844386331
 20
-450.6145443066
 10
913.4621593671
 20
-452.0755779429
 10
913.8384309156
 20
-453.7620495838
 10
913.9647956919
 20
-455.6362862397
  0
ARC
  5
221
330
1F
100
AcDbEntity
  8
0
  6
Continuous
 62
     7
370
    25
100
AcDbCircle
 10
1088.1593142567
 20
-515.6110976511
 30
0.0
 40
111.380328423097
100
AcDbArc
 50
34.3471162482
 51
81.8038048448
  0
ARC
  5
222
330
1F
100
AcDbEntity
  8
0
  6
Continuous
 62
     7
370
    25
100
AcDbCircle
 10
876.9642389893
 20
-881.2459897181
 30
0.0
 40
111.2595509760161
100
AcDbArc
 50
215.7265169269
 51
263.3329054747
  0
ARC
  5
223
330
1F
100
AcDbEntity
  8
0
  6
Continuous
 62
     7
370
    25
100
AcDbCircle
 10
915.462359637
 20
-896.6598814042
 30
0.0
 40
117.3934009459841
100
AcDbArc
 50
217.6460548891
 51
229.4838633687
  0
ARC
  5
224
330
1F
100
AcDbEntity
  8
0
  6
Continuous
 62
     7
370
    25
100
AcDbCircle
 10
1120.6564467475
 20
-541.3245450149
 30
0.0
 40
117.6500730739486
100
AcDbArc
 50
70.5254849089
 51
83.2995010131
  0
LWPOLYLINE
  5
225
330
1F
100
AcDbEntity
  8
0
  6
Continuous
 62
     7
370
    25
100
AcDbPolyline
 90
        3
 70
   128
 43
0.0
 10
1197.8750471815
 20
-739.9190304996
 10
1197.5818924992
 20
-739.7218666884
 10
1197.4389974216
 20
-739.6361703636
  0
LINE
  5
226
330
1F
100
AcDbEntity
  8
0
  6
Continuous
 62
     7
370
    25
100
AcDbLine
 10
1182.4402164321
 20
-765.6176362351
 30
0.0
 11
1182.6712414821
 21
-765.7430303596
 31
0.0
  0
LWPOLYLINE
  5
227
330
1F
100
AcDbEntity
  8
0
  6
Continuous
 62
     7
370
    25
100
AcDbPolyline
 90
        3
 70
   128
 43
0.0
 10
1141.1675536044
 20
-838.1392902568
 10
1140.8743989221
 20
-837.9421264455
 10
1140.7315038445
 20
-837.8564301208
  0
LINE
  5
228
330
1F
100
AcDbEntity
  8
0
  6
Continuous
 62
     7
370
    25
100
AcDbLine
 10
1125.732722855
 20
-863.8378959922
 30
0.0
 11
1125.963747905
 21
-863.9632901167
 31
0.0
  0
LWPOLYLINE
  5
229
330
1F
100
AcDbEntity
  8
0
  6
Continuous
 62
     7
370
    25
100
AcDbPolyline
 90
        3
 70
   128
 43
0.0
 10
1234.283499247
 20
-636.3865768838
 10
1233.9903445648
 20
-636.1894130725
 10
1233.8474494872
 20
-636.1037167477
  0
LINE
  5
22A
330
1F
100
AcDbEntity
  8
0
  6
Continuous
 62
     7
370
    25
100
AcDbLine
 10
1218.8486684976
 20
-662.0851826192
 30
0.0
 11
1219.0796935477
 21
-662.2105767437
 31
0.0
  0
LWPOLYLINE
  5
22B
330
1F
100
AcDbEntity
  8
0
  6
Continuous
 62
     7
370
    25
100
AcDbPolyline
 90
        3
 70
   128
 43
0.0
 10
1069.7119430914
 20
-921.4328727894
 10
1069.4187884092
 20
-921.2357089781
 10
1069.2758933315
 20
-921.1500126534
  0
LINE
  5
22C
330
1F
100
AcDbEntity
  8
0
  6
Continuous
 62
     7
370
    25
100
AcDbLine
 10
1054.277112342
 20
-947.1314785248
 30
0.0
 11
1054.508137392
 21
-947.2568726493
 31
0.0
  0
LWPOLYLINE
  5
22D
330
1F
100
AcDbEntity
  8
0
  6
Continuous
 62
     7
370
    25
100
AcDbPolyline
 90
        3
 70
   128
 43
0.0
 10
1246.8289968402
 20
-537.6764073221
 10
1246.535842158
 20
-537.4792435108
 10
1246.3929470803
 20
-537.3935471861
  0
LINE
  5
22E
330
1F
100
AcDbEntity
  8
0
  6
Continuous
 62
     7
370
    25
100
AcDbLine
 10
1231.3941660908
 20
-563.3750130575
 30
0.0
 11
1231.6251911409
 21
-563.500407182
 31
0.0
  0
LWPOLYLINE
  5
22F
330
1F
100
AcDbEntity
  8
0
  6
Continuous
 62
     7
370
    25
100
AcDbPolyline
 90
        3
 70
   128
 43
0.0
 10
990.50278866
 20
-981.6464218986
 10
990.2096339778
 20
-981.4492580873
 10
990.0667389002
 20
-981.3635617626
  0
LINE
  5
230
330
1F
100
AcDbEntity
  8
0
  6
Continuous
 62
     7
370
    25
100
AcDbLine
 10
975.0679579106
 20
-1007.345027634
 30
0.0
 11
975.2989829607
 21
-1007.4704217585
 31
0.0
  0
LWPOLYLINE
  5
231
330
1F
100
AcDbEntity
  8
0
  6
Continuous
 62
     7
370
    25
100
AcDbPolyline
 90
        3
 70
   128
 43
0.0
 10
1234.283499247
 20
-453.4509609655
 10
1233.9903445648
 20
-453.2537971542
 10
1233.8474494872
 20
-453.1681008295
  0
LINE
  5
232
330
1F
100
AcDbEntity
  8
0
  6
Continuous
 62
     7
370
    25
100
AcDbLine
 10
1218.8486684976
 20
-479.1495667009
 30
0.0
 11
1219.0796935477
 21
-479.2749608254
 31
0.0
  0
LWPOLYLINE
  5
233
330
1F
100
AcDbEntity
  8
0
  6
Continuous
 62
     7
370
    25
100
AcDbPolyline
 90
        3
 70
   128
 43
0.0
 10
911.2936342287
 20
-1012.8858158652
 10
911.0004795464
 20
-1012.6886520539
 10
910.8575844688
 20
-1012.6029557292
  0
LINE
  5
234
330
1F
100
AcDbEntity
  8
0
  6
Continuous
 62
     7
370
    25
100
AcDbLine
 10
895.8588034793
 20
-1038.5844216006
 30
0.0
 11
896.0898285293
 21
-1038.7098157251
 31
0.0
  0
LWPOLYLINE
  5
235
330
1F
100
AcDbEntity
  8
0
  6
Continuous
 62
     7
370
    25
100
AcDbPolyline
 90
        3
 70
   128
 43
0.0
 10
1197.8750471815
 20
-391.9548113366
 10
1197.5818924993
 20
-391.7576475253
 10
1197.4389974216
 20
-391.6719512006
  0
LINE
  5
236
330
1F
100
AcDbEntity
  8
0
  6
Continuous
 62
     7
370
    25
100
AcDbLine
 10
1182.4402164321
 20
-417.653417072
 30
0.0
 11
1182.6712414821
 21
-417.7788111965
 31
0.0
  0
LWPOLYLINE
  5
237
330
1F
100
AcDbEntity
  8
0
  6
Continuous
 62
     7
370
    25
100
AcDbPolyline
 90
        3
 70
   128
 43
0.0
 10
839.8380237157
 20
-1012.09312515
 10
839.5448690334
 20
-1011.8959613388
 10
839.4019739558
 20
-1011.810265014
  0
LINE
  5
238
330
1F
100
AcDbEntity
  8
0
  6
Continuous
 62
     7
370
    25
100
AcDbLine
 10
824.4031929663
 20
-1037.7917308854
 30
0.0
 11
824.6342180163
 21
-1037.9171250099
 31
0.0
  0
LWPOLYLINE
  5
239
330
1F
100
AcDbEntity
  8
0
  6
Continuous
 62
     7
370
    25
100
AcDbPolyline
 90
        3
 70
   128
 43
0.0
 10
1141.1675536044
 20
-359.2076300299
 10
1140.8743989222
 20
-359.0104662186
 10
1140.7315038446
 20
-358.9247698939
  0
LINE
  5
23A
330
1F
100
AcDbEntity
  8
0
  6
Continuous
 62
     7
370
    25
100
AcDbLine
 10
1125.732722855
 20
-384.9062357653
 30
0.0
 11
1125.9637479051
 21
-385.0316298898
 31
0.0
  0
LWPOLYLINE
  5
23B
330
1F
100
AcDbEntity
  8
0
  6
Continuous
 62
     7
370
    25
100
AcDbPolyline
 90
        3
 70
   128
 43
0.0
 10
783.1305301386
 20
-979.3459438433
 10
782.8373754564
 20
-979.148780032
 10
782.6944803787
 20
-979.0630837073
  0
LINE
  5
23C
330
1F
100
AcDbEntity
  8
0
  6
Continuous
 62
     7
370
    25
100
AcDbLine
 10
767.6956993892
 20
-1005.0445495787
 30
0.0
 11
767.9267244392
 21
-1005.1699437032
 31
0.0
  0
LWPOLYLINE
  5
23D
330
1F
100
AcDbEntity
  8
0
  6
Continuous
 62
     7
370
    25
100
AcDbPolyline
 90
        3
 70
   128
 43
0.0
 10
1069.7119430915
 20
-358.4149393147
 10
1069.4187884092
 20
-358.2177755034
 10
1069.2758933316
 20
-358.1320791787
  0
LINE
  5
23E
330
1F
100
AcDbEntity
  8
0
  6
Continuous
 62
     7
370
    25
100
AcDbLine
 10
1054.277112342
 20
-384.1135450501
 30
0.0
 11
1054.5081373921
 21
-384.2389391746
 31
0.0
  0
LWPOLYLINE
  5
23F
330
1F
100
AcDbEntity
  8
0
  6
Continuous
 62
     7
370
    25
100
AcDbPolyline
 90
        3
 70
   128
 43
0.0
 10
746.7220780731
 20
-917.8497942144
 10
746.4289233908
 20
-917.6526304031
 10
746.2860283132
 20
-917.5669340784
  0
LINE
  5
240
330
1F
100
AcDbEntity
  8
0
  6
Continuous
 62
     7
370
    25
100
AcDbLine
 10
731.2872473237
 20
-943.5483999498
 30
0.0
 11
731.5182723737
 21
-943.6737940743
 31
0.0
  0
LWPOLYLINE
  5
241
330
1F
100
AcDbEntity
  8
0
  6
Continuous
 62
     7
370
    25
100
AcDbPolyline
 90
        3
 70
   128
 43
0.0
 10
990.5027886601
 20
-389.6543332813
 10
990.2096339778
 20
-389.45716947
 10
990.0667389002
 20
-389.3714731453
  0
LINE
  5
242
330
1F
100
AcDbEntity
  8
0
  6
Continuous
 62
     7
370
    25
100
AcDbLine
 10
975.0679579107
 20
-415.3529390167
 30
0.0
 11
975.2989829607
 21
-415.4783331412
 31
0.0
  0
LWPOLYLINE
  5
243
330
1F
100
AcDbEntity
  8
0
  6
Continuous
 62
     7
370
    25
100
AcDbPolyline
 90
        3
 70
   128
 43
0.0
 10
734.1765804799
 20
-833.6243478578
 10
733.8834257976
 20
-833.4271840465
 10
733.74053072
 20
-833.3414877218
  0
LINE
  5
244
330
1F
100
AcDbEntity
  8
0
  6
Continuous
 62
     7
370
    25
100
AcDbLine
 10
718.7417497305
 20
-859.3229535932
 30
0.0
 11
718.9727747805
 21
-859.4483477177
 31
0.0
  0
LWPOLYLINE
  5
245
330
1F
100
AcDbEntity
  8
0
  6
Continuous
 62
     7
370
    25
100
AcDbPolyline
 90
        3
 70
   128
 43
0.0
 10
911.2936342287
 20
-449.8678823905
 10
911.0004795465
 20
-449.6707185793
 10
910.8575844688
 20
-449.5850222545
  0
LINE
  5
246
330
1F
100
AcDbEntity
  8
0
  6
Continuous
 62
     7
370
    25
100
AcDbLine
 10
895.8588034793
 20
-475.5664881259
 30
0.0
 11
896.0898285293
 21
-475.6918822504
 31
0.0
  0
LWPOLYLINE
  5
247
330
1F
100
AcDbEntity
  8
0
  6
Continuous
 62
     7
370
    25
100
AcDbPolyline
 90
        3
 70
   128
 43
0.0
 10
746.7220780731
 20
-734.9141782961
 10
746.4289233908
 20
-734.7170144849
 10
746.2860283132
 20
-734.6313181601
  0
LINE
  5
248
330
1F
100
AcDbEntity
  8
0
  6
Continuous
 62
     7
370
    25
100
AcDbLine
 10
731.2872473237
 20
-760.6127840315
 30
0.0
 11
731.5182723737
 21
-760.7381781561
 31
0.0
  0
LWPOLYLINE
  5
249
330
1F
100
AcDbEntity
  8
0
  6
Continuous
 62
     7
370
    25
100
AcDbPolyline
 90
        3
 70
   128
 43
0.0
 10
839.8380237157
 20
-533.1614649231
 10
839.5448690335
 20
-532.9643011118
 10
839.4019739558
 20
-532.8786047871
  0
LINE
  5
24A
330
1F
100
AcDbEntity
  8
0
  6
Continuous
 62
     7
370
    25
100
AcDbLine
 10
824.4031929663
 20
-558.8600706585
 30
0.0
 11
824.6342180164
 21
-558.985464783
 31
0.0
  0
LWPOLYLINE
  5
24B
330
1F
100
AcDbEntity
  8
0
  6
Continuous
 62
     7
370
    25
100
AcDbPolyline
 90
        3
 70
   128
 43
0.0
 10
783.1305301386
 20
-631.3817246803
 10
782.8373754564
 20
-631.184560869
 10
782.6944803788
 20
-631.0988645442
  0
LINE
  5
24C
330
1F
100
AcDbEntity
  8
0
  6
Continuous
 62
     7
370
    25
100
AcDbLine
 10
767.6956993892
 20
-657.0803304157
 30
0.0
 11
767.9267244393
 21
-657.2057245402
 31
0.0
  0
LWPOLYLINE
  5
24D
330
1F
100
AcDbEntity
  8
0
  6
Continuous
 62
     1
370
    25
100
AcDbPolyline
 90
       72
 70
   128
 43
0.0
 10
1265.0565074895
 20
-535.280730053
 10
1264.9324485641
 20
-545.018977959
 10
1264.5603807524
 20
-554.8919078855
 10
1263.9406308516
 20
-564.8908481717
 10
1263.0737432046
 20
-575.0070164785
 10
1261.9604792224
 20
-585.2315275023
 10
1260.6018167146
 20
-595.5554007793
 10
1258.9989490313
 20
-605.969568573
 10
1257.1532840144
 20
-616.4648838388
 10
1255.0664427613
 20
-627.0321282581
 10
1252.7402582008
 20
-637.662020335
 10
1250.1767734838
 20
-648.3452235486
 10
1247.378240188
 20
-659.072354553
 10
1244.3471163408
 20
-669.8339914198
 10
1241.0860642598
 20
-680.620681913
 10
1237.5979482153
 20
-691.4229517911
 10
1233.8858319137
 20
-702.2313131291
 10
1229.9529758068
 20
-713.0362726516
 10
1225.8028342283
 20
-723.8283400711
 10
1221.4390523595
 20
-734.5980364235
 10
1216.8654630278
 20
-745.3359023941
 10
1212.0860833401
 20
-756.0325066254
 10
1207.1051111545
 20
-766.6784540012
 10
1201.9269213933
 20
-777.2643938987
 10
1196.5560622004
 20
-787.7810284013
 10
1190.9972509461
 20
-798.2191204651
 10
1185.2553700846
 20
-808.5695020323
 10
1179.3354628646
 20
-818.8230820834
 10
1173.2427289003
 20
-828.9708546223
 10
1166.9825196045
 20
-839.0039065867
 10
1160.5603334879
 20
-848.9134256764
 10
1153.9818113298
 20
-858.6907080932
 10
1147.2527312237
 20
-868.3271661863
 10
1140.3790035023
 20
-877.8143359944
 10
1133.3666655461
 20
-887.1438846805
 10
1126.2218764807
 20
-896.30761785
 10
1118.9509117672
 20
-905.2974867489
 10
1111.56015769
 20
-914.1055953328
 10
1104.0561057478
 20
-922.7242072023
 10
1096.4453469521
 20
-931.145752398
 10
1088.7345660375
 20
-939.3628340495
 10
1080.930535591
 20
-947.3682348723
 10
1073.0401101031
 20
-955.1549235068
 10
1065.0702199475
 20
-962.7160606943
 10
1057.0278652936
 20
-970.045005284
 10
1048.9201099587
 20
-977.1353200661
 10
1040.7540752029
 20
-983.9807774259
 10
1032.536933475
 20
-990.5753648134
 10
1024.2759021121
 20
-996.9132900245
 10
1015.9782370012
 20
-1002.9889862887
 10
1007.6512262053
 20
-1008.7971171577
 10
999.3021835627
 20
-1014.3325811938
 10
990.9384422629
 20
-1019.5905164493
 10
982.5673484054
 20
-1024.5663047379
 10
974.196254548
 20
-1029.2555756906
 10
965.8325132481
 20
-1033.654210594
 10
957.4834706055
 20
-1037.7583460084
 10
949.1564598097
 20
-1041.5643771611
 10
940.8587946987
 20
-1045.068961112
 10
932.5977633359
 20
-1048.2690196907
 10
924.380621608
 20
-1051.1617421992
 10
916.2145868522
 20
-1053.7445878814
 10
908.1068315172
 20
-1056.0152881542
 10
900.0644768634
 20
-1057.9718486003
 10
892.0945867078
 20
-1059.6125507198
 10
884.2041612199
 20
-1060.9359534398
 10
876.4001307734
 20
-1061.94089438
 10
868.6893498588
 20
-1062.6264908737
 10
861.078591063
 20
-1062.9921407429
 10
853.5745391209
 20
-1063.0375228276
 10
846.1837850437
 20
-1062.7625972673
 10
841.6234480245
 20
-1062.4280734964
  0
LWPOLYLINE
  5
24E
330
1F
100
AcDbEntity
  8
0
  6
Continuous
 62
     1
370
    25
100
AcDbPolyline
 90
       19
 70
   128
 43
0.0
 10
1227.1637172218
 20
-393.9589367723
 10
1229.9529758068
 20
-398.0548624369
 10
1233.8858319137
 20
-404.3190429515
 10
1237.5979482153
 20
-410.841486036
 10
1241.0860642598
 20
-417.6164628524
 10
1244.3471163408
 20
-424.638022756
 10
1247.378240188
 20
-431.8999985211
 10
1250.1767734838
 20
-439.3960117585
 10
1252.7402582008
 20
-447.1194785175
 10
1255.0664427613
 20
-455.0636150689
 10
1257.1532840144
 20
-463.2214438632
 10
1258.9989490313
 20
-471.5857996592
 10
1260.6018167146
 20
-480.1493358176
 10
1261.9604792224
 20
-488.9045307534
 10
1263.0737432046
 20
-497.8436945427
 10
1263.9406308516
 20
-506.9589756768
 10
1264.5603807524
 20
-516.2423679583
 10
1264.9324485641
 20
-525.6857175333
 10
1265.0565074895
 20
-535.280730053
  0
LWPOLYLINE
  5
24F
330
1F
100
AcDbEntity
  8
0
  6
Continuous
 62
     1
370
    25
100
AcDbPolyline
 90
       19
 70
   128
 43
0.0
 10
1298.9976329864
 20
-554.8745247367
 10
1298.8735740611
 20
-545.279512217
 10
1298.5015062494
 20
-535.8361626421
 10
1297.8817563485
 20
-526.5527703606
 10
1297.0148687016
 20
-517.4374892265
 10
1295.9016047193
 20
-508.4983254371
 10
1294.5429422116
 20
-499.7431305013
 10
1292.9400745283
 20
-491.179594343
 10
1291.0944095114
 20
-482.815238547
 10
1289.0075682582
 20
-474.6574097527
 10
1286.6813836978
 20
-466.7132732013
 10
1284.1178989808
 20
-458.9898064423
 10
1281.319365685
 20
-451.4937932048
 10
1278.2882418377
 20
-444.2318174397
 10
1275.0271897568
 20
-437.2102575362
 10
1271.5390737123
 20
-430.4352807197
 10
1267.8269574106
 20
-423.9128376353
 10
1263.8941013037
 20
-417.6486571206
 10
1261.5071093054
 20
-414.1271290458
  0
LWPOLYLINE
  5
250
330
1F
100
AcDbEntity
  8
0
  6
Continuous
 62
     1
370
    25
100
AcDbPolyline
 90
       72
 70
   128
 43
0.0
 10
876.6488253426
 20
-1082.1130848547
 10
880.1249105407
 20
-1082.356391951
 10
887.5156646179
 20
-1082.6313175113
 10
895.01971656
 20
-1082.5859354267
 10
902.6304753558
 20
-1082.2202855575
 10
910.3412562704
 20
-1081.5346890638
 10
918.1452867168
 20
-1080.5297481236
 10
926.0357122047
 20
-1079.2063454035
 10
934.0056023604
 20
-1077.565643284
 10
942.0479570142
 20
-1075.6090828379
 10
950.1557123491
 20
-1073.3383825651
 10
958.3217471049
 20
-1070.755536883
 10
966.5388888329
 20
-1067.8628143744
 10
974.7999201957
 20
-1064.6627557958
 10
983.0975853066
 20
-1061.1581718448
 10
991.4245961025
 20
-1057.3521406922
 10
999.7736387451
 20
-1053.2480052777
 10
1008.1373800449
 20
-1048.8493703743
 10
1016.5084739024
 20
-1044.1600994217
 10
1024.8795677598
 20
-1039.1843111331
 10
1033.2433090597
 20
-1033.9263758775
 10
1041.5923517023
 20
-1028.3909118415
 10
1049.9193624982
 20
-1022.5827809724
 10
1058.2170276091
 20
-1016.5070847083
 10
1066.4780589719
 20
-1010.1691594971
 10
1074.6952006999
 20
-1003.5745721096
 10
1082.8612354556
 20
-996.7291147499
 10
1090.9689907906
 20
-989.6387999678
 10
1099.0113454444
 20
-982.309855378
 10
1106.9812356001
 20
-974.7487181905
 10
1114.8716610879
 20
-966.962029556
 10
1122.6756915344
 20
-958.9566287332
 10
1130.386472449
 20
-950.7395470817
 10
1137.9972312448
 20
-942.3180018861
 10
1145.5012831869
 20
-933.6993900166
 10
1152.8920372641
 20
-924.8912814327
 10
1160.1630019777
 20
-915.9014125337
 10
1167.3077910431
 20
-906.7376793642
 10
1174.3201289993
 20
-897.4081306782
 10
1181.1938567207
 20
-887.92096087
 10
1187.9229368267
 20
-878.2845027769
 10
1194.5014589849
 20
-868.5072203601
 10
1200.9236451015
 20
-858.5977012705
 10
1207.1838543973
 20
-848.5646493061
 10
1213.2765883615
 20
-838.4168767671
 10
1219.1964955815
 20
-828.163296716
 10
1224.9383764431
 20
-817.8129151489
 10
1230.4971876973
 20
-807.374823085
 10
1235.8680468903
 20
-796.8581885824
 10
1241.0462366515
 20
-786.2722486849
 10
1246.027208837
 20
-775.6263013091
 10
1250.8065885247
 20
-764.9296970778
 10
1255.3801778564
 20
-754.1918311073
 10
1259.7439597252
 20
-743.4221347548
 10
1263.8941013037
 20
-732.6300673353
 10
1267.8269574106
 20
-721.8251078128
 10
1271.5390737123
 20
-711.0167464748
 10
1275.0271897568
 20
-700.2144765967
 10
1278.2882418377
 20
-689.4277861036
 10
1281.319365685
 20
-678.6661492368
 10
1284.1178989808
 20
-667.9390182323
 10
1286.6813836978
 20
-657.2558150188
 10
1289.0075682582
 20
-646.6259229419
 10
1291.0944095114
 20
-636.0586785225
 10
1292.9400745283
 20
-625.5633632567
 10
1294.5429422116
 20
-615.1491954631
 10
1295.9016047193
 20
-604.8253221861
 10
1297.0148687016
 20
-594.6008111622
 10
1297.8817563485
 20
-584.4846428554
 10
1298.5015062494
 20
-574.4857025692
 10
1298.8735740611
 20
-564.6127726428
 10
1298.9976329864
 20
-554.8745247367
  0
LWPOLYLINE
  5
251
330
1F
100
AcDbEntity
  8
0
  6
Continuous
 62
     1
370
    25
100
AcDbPolyline
 90
       83
 70
   128
 43
0.0
 10
1104.0380508788
 20
-405.3684412838
 10
1100.9141752196
 20
-404.9417452975
 10
1094.4044741362
 20
-404.3042612328
 10
1087.7724807979
 20
-403.988320888
 10
1081.0254471918
 20
-403.9942697392
 10
1074.1707511003
 20
-404.3221012814
 10
1067.2158880328
 20
-404.9714570357
 10
1060.1684630301
 20
-405.9416269411
 10
1053.0361823478
 20
-407.231550131
 10
1045.8268450302
 20
-408.8398160933
 10
1038.5483343819
 20
-410.7646662129
 10
1031.2086093473
 20
-413.0039956944
 10
1023.8156958079
 20
-415.5553558638
 10
1016.3776778063
 20
-418.4159568464
 10
1008.9026887059
 20
-421.5826706169
 10
1001.3989022976
 20
-425.0520344202
 10
993.8745238615
 20
-428.8202545581
 10
986.3377811951
 20
-432.8832105371
 10
978.7969156158
 20
-437.2364595746
 10
971.2601729494
 20
-441.8752414565
 10
963.7357945133
 20
-446.794483743
 10
956.2320081049
 20
-451.988807315
 10
948.7570190045
 20
-457.4525322558
 10
941.3190010029
 20
-463.1796840624
 10
933.9260874636
 20
-469.1640001785
 10
926.586362429
 20
-475.3989368422
 10
919.3078517806
 20
-481.8776762418
 10
912.0985144631
 20
-488.5931339708
 10
904.9662337808
 20
-495.537966775
 10
897.918808778
 20
-502.7045805815
 10
890.9639457106
 20
-510.0851388033
 10
884.1092496191
 20
-517.6715709085
 10
877.362216013
 20
-525.4555812449
 10
870.7302226746
 20
-533.4286581115
 10
864.2205215912
 20
-541.5820830658
 10
857.8402310254
 20
-549.9069404572
 10
851.5963277313
 20
-558.3941271765
 10
845.4956393253
 20
-567.0343626097
 10
839.5448368208
 20
-575.818198786
 10
833.7504273328
 20
-584.7360307097
 10
828.1187469631
 20
-593.7781068623
 10
822.6559538715
 20
-602.9345398665
 10
817.368021542
 20
-612.1953172972
 10
812.2607322511
 20
-621.5503126302
 10
807.3396707444
 20
-630.9892963154
 10
802.6102181307
 20
-640.5019469628
 10
798.0775459967
 20
-650.0778626286
 10
793.7466107531
 20
-659.7065721895
 10
789.6221482138
 20
-669.3775467931
 10
785.7086684182
 20
-679.0802113705
 10
782.0104506989
 20
-688.8039562006
 10
778.5315390026
 20
-698.5381485112
 10
775.2757374684
 20
-708.2721441057
 10
772.2466062672
 20
-717.995299003
 10
769.4474577097
 20
-727.696981076
 10
766.8813526237
 20
-737.3665816778
 10
764.5510970074
 20
-746.9935272419
 10
762.4592389611
 20
-756.5672908449
 10
760.6080659009
 20
-766.0774037168
 10
758.9996020574
 20
-775.5134666887
 10
757.6356062621
 20
-784.8651615645
 10
756.5175700244
 20
-794.1222624029
 10
755.6467159005
 20
-803.2746467002
 10
755.0239961567
 20
-812.3123064584
 10
754.6500917278
 20
-821.2253591295
 10
754.5254114728
 20
-830.004058421
 10
754.6500917278
 20
-838.6388049543
 10
755.0239961567
 20
-847.1201567607
 10
755.6467159005
 20
-855.4388396066
 10
756.5175700244
 20
-863.5857571344
 10
757.6356062621
 20
-871.5520008095
 10
758.9996020574
 20
-879.3288596612
 10
760.6080659009
 20
-886.9078298087
 10
762.4592389611
 20
-894.2806237594
 10
764.5510970074
 20
-901.4391794713
 10
766.8813526237
 20
-908.3756691689
 10
769.4474577097
 20
-915.0825079024
 10
772.2466062672
 20
-921.5523618423
 10
775.2757374684
 20
-927.7781562982
 10
778.5315390026
 20
-933.7530834553
 10
782.0104506989
 20
-939.4706098185
 10
785.7086684182
 20
-944.9244833566
 10
786.6422476802
 20
-946.2123315372
  0
LWPOLYLINE
  5
252
330
1F
100
AcDbEntity
  8
0
  6
Continuous
 62
     1
370
    25
100
AcDbPolyline
 90
       82
 70
   128
 43
0.0
 10
822.5103883825
 20
-968.3616360938
 10
819.6497939151
 20
-964.5182780404
 10
815.9515761958
 20
-959.0644045023
 10
812.4726644996
 20
-953.3468781391
 10
809.2168629653
 20
-947.371950982
 10
806.1877317642
 20
-941.146156526
 10
803.3885832067
 20
-934.6763025862
 10
800.8224781207
 20
-927.9694638526
 10
798.4922225044
 20
-921.032974155
 10
796.4003644581
 20
-913.8744184432
 10
794.5491913979
 20
-906.5016244925
 10
792.9407275543
 20
-898.922654345
 10
791.576731759
 20
-891.1457954932
 10
790.4586955213
 20
-883.1795518181
 10
789.5878413974
 20
-875.0326342903
 10
788.9651216536
 20
-866.7139514444
 10
788.5912172247
 20
-858.232599638
 10
788.4665369697
 20
-849.5978531047
 10
788.5912172247
 20
-840.8191538132
 10
788.9651216536
 20
-831.9061011422
 10
789.5878413974
 20
-822.8684413839
 10
790.4586955213
 20
-813.7160570866
 10
791.576731759
 20
-804.4589562482
 10
792.9407275543
 20
-795.1072613725
 10
794.5491913979
 20
-785.6711984005
 10
796.4003644581
 20
-776.1610855287
 10
798.4922225044
 20
-766.5873219257
 10
800.8224781207
 20
-756.9603763615
 10
803.3885832067
 20
-747.2907757598
 10
806.1877317642
 20
-737.5890936868
 10
809.2168629653
 20
-727.8659387895
 10
812.4726644996
 20
-718.1319431949
 10
815.9515761958
 20
-708.3977508844
 10
819.6497939152
 20
-698.6740060543
 10
823.5632737108
 20
-688.9713414768
 10
827.68773625
 20
-679.3003668733
 10
832.0186714937
 20
-669.6716573123
 10
836.5513436276
 20
-660.0957416466
 10
841.2807962414
 20
-650.5830909991
 10
846.201857748
 20
-641.1441073139
 10
851.309147039
 20
-631.789111981
 10
856.5970793685
 20
-622.5283345503
 10
862.0598724601
 20
-613.3719015461
 10
867.6915528297
 20
-604.3298253934
 10
873.4859623177
 20
-595.4119934697
 10
879.4367648223
 20
-586.6281572934
 10
885.5374532282
 20
-577.9879218603
 10
891.7813565224
 20
-569.5007351409
 10
898.1616470882
 20
-561.1758777495
 10
904.6713481716
 20
-553.0224527952
 10
911.30334151
 20
-545.0493759287
 10
918.050375116
 20
-537.2653655923
 10
924.9050712075
 20
-529.6789334871
 10
931.859934275
 20
-522.2983752652
 10
938.9073592778
 20
-515.1317614587
 10
946.03963996
 20
-508.1869286546
 10
953.2489772776
 20
-501.4714709255
 10
960.5274879259
 20
-494.9927315259
 10
967.8672129606
 20
-488.7577948623
 10
975.2601264999
 20
-482.7734787462
 10
982.6981445015
 20
-477.0463269395
 10
990.1731336019
 20
-471.5826019987
 10
997.6769200102
 20
-466.3882784268
 10
1005.2012984463
 20
-461.4690361402
 10
1012.7380411127
 20
-456.8302542583
 10
1020.278906692
 20
-452.4770052209
 10
1027.8156493585
 20
-448.4140492419
 10
1035.3400277945
 20
-444.645829104
 10
1042.8438142029
 20
-441.1764653006
 10
1050.3188033033
 20
-438.0097515301
 10
1057.7568213049
 20
-435.1491505476
 10
1065.1497348442
 20
-432.5977903781
 10
1072.4894598788
 20
-430.3584608967
 10
1079.7679705272
 20
-428.4336107771
 10
1086.9773078448
 20
-426.8253448147
 10
1094.109588527
 20
-425.5354216248
 10
1101.1570135298
 20
-424.5652517195
 10
1108.1118765972
 20
-423.9158959652
 10
1114.9665726888
 20
-423.5880644229
 10
1121.7136062948
 20
-423.5821155717
 10
1128.3455996332
 20
-423.8980559165
 10
1134.3837851052
 20
-424.4780650683
  0
LWPOLYLINE
  5
253
330
1F
100
AcDbEntity
  8
0
  6
Continuous
 62
     1
370
    25
100
AcDbPolyline
 90
       22
 70
   128
 43
0.0
 10
1197.4389974216
 20
-739.6361703636
 10
1196.3695984122
 20
-739.1741119241
 10
1195.0065907745
 20
-738.9416791876
 10
1193.52481733
 20
-739.0300165052
 10
1191.9590095924
 20
-739.4370533251
 10
1190.3458687678
 20
-740.1532490492
 10
1188.72320551
 20
-741.1618166567
 10
1187.1290536705
 20
-742.4391161778
 10
1185.6007788171
 20
-743.9552087942
 10
1184.1742024173
 20
-745.6745585801
 10
1182.8827622126
 20
-747.5568654336
 10
1181.7567284669
 20
-749.5580096776
 10
1180.8224944568
 20
-751.6310861869
 10
1180.1019578357
 20
-753.7275038054
 10
1179.6120073713
 20
-755.7981242808
 10
1179.3641270873
 20
-757.7944140242
 10
1179.3641270873
 20
-759.6695816961
 10
1179.6120073713
 20
-761.3796749553
 10
1180.1019578357
 20
-762.8846106655
 10
1180.8224944568
 20
-764.1491144091
 10
1181.7567284669
 20
-765.14354729
 10
1182.4402164321
 20
-765.6176362351
  0
LWPOLYLINE
  5
254
330
1F
100
AcDbEntity
  8
0
  6
Continuous
 62
     1
370
    25
100
AcDbPolyline
 90
       22
 70
   128
 43
0.0
 10
1140.7315038445
 20
-837.8564301208
 10
1139.6621048351
 20
-837.3943716812
 10
1138.2990971974
 20
-837.1619389447
 10
1136.8173237529
 20
-837.2502762624
 10
1135.2515160153
 20
-837.6573130822
 10
1133.6383751907
 20
-838.3735088063
 10
1132.0157119329
 20
-839.3820764139
 10
1130.4215600934
 20
-840.6593759349
 10
1128.89328524
 20
-842.1754685514
 10
1127.4667088402
 20
-843.8948183372
 10
1126.1752686355
 20
-845.7771251908
 10
1125.0492348898
 20
-847.7782694347
 10
1124.1150008797
 20
-849.8513459441
 10
1123.3944642586
 20
-851.9477635625
 10
1122.9045137942
 20
-854.018384038
 10
1122.6566335102
 20
-856.0146737814
 10
1122.6566335102
 20
-857.8898414532
 10
1122.9045137942
 20
-859.5999347125
 10
1123.3944642586
 20
-861.1048704227
 10
1124.1150008797
 20
-862.3693741662
 10
1125.0492348898
 20
-863.3638070471
 10
1125.732722855
 20
-863.8378959922
  0
LWPOLYLINE
  5
255
330
1F
100
AcDbEntity
  8
0
  6
Continuous
 62
     1
370
    25
100
AcDbPolyline
 90
       22
 70
   128
 43
0.0
 10
1233.8474494872
 20
-636.1037167477
 10
1232.7780504777
 20
-635.6416583082
 10
1231.41504284
 20
-635.4092255717
 10
1229.9332693956
 20
-635.4975628893
 10
1228.3674616579
 20
-635.9045997092
 10
1226.7543208333
 20
-636.6207954333
 10
1225.1316575755
 20
-637.6293630408
 10
1223.537505736
 20
-638.9066625619
 10
1222.0092308827
 20
-640.4227551784
 10
1220.5826544828
 20
-642.1421049642
 10
1219.2912142781
 20
-644.0244118177
 10
1218.1651805324
 20
-646.0255560617
 10
1217.2309465223
 20
-648.098632571
 10
1216.5104099013
 20
-650.1950501895
 10
1216.0204594369
 20
-652.2656706649
 10
1215.7725791528
 20
-654.2619604084
 10
1215.7725791528
 20
-656.1371280802
 10
1216.0204594369
 20
-657.8472213395
 10
1216.5104099013
 20
-659.3521570496
 10
1217.2309465223
 20
-660.6166607932
 10
1218.1651805324
 20
-661.6110936741
 10
1218.8486684976
 20
-662.0851826192
  0
LWPOLYLINE
  5
256
330
1F
100
AcDbEntity
  8
0
  6
Continuous
 62
     1
370
    25
100
AcDbPolyline
 90
       22
 70
   128
 43
0.0
 10
1069.2758933315
 20
-921.1500126534
 10
1068.2064943221
 20
-920.6879542138
 10
1066.8434866844
 20
-920.4555214773
 10
1065.3617132399
 20
-920.5438587949
 10
1063.7959055023
 20
-920.9508956148
 10
1062.1827646777
 20
-921.6670913389
 10
1060.5601014199
 20
-922.6756589465
 10
1058.9659495804
 20
-923.9529584675
 10
1057.437674727
 20
-925.469051084
 10
1056.0110983272
 20
-927.1884008698
 10
1054.7196581225
 20
-929.0707077234
 10
1053.5936243768
 20
-931.0718519673
 10
1052.6593903667
 20
-933.1449284767
 10
1051.9388537456
 20
-935.2413460951
 10
1051.4489032812
 20
-937.3119665705
 10
1051.2010229972
 20
-939.308256314
 10
1051.2010229972
 20
-941.1834239858
 10
1051.4489032812
 20
-942.8935172451
 10
1051.9388537456
 20
-944.3984529552
 10
1052.6593903667
 20
-945.6629566988
 10
1053.5936243768
 20
-946.6573895797
 10
1054.277112342
 20
-947.1314785248
  0
LWPOLYLINE
  5
257
330
1F
100
AcDbEntity
  8
0
  6
Continuous
 62
     1
370
    25
100
AcDbPolyline
 90
       22
 70
   128
 43
0.0
 10
1246.3929470803
 20
-537.3935471861
 10
1245.3235480709
 20
-536.9314887465
 10
1243.9605404332
 20
-536.69905601
 10
1242.4787669888
 20
-536.7873933277
 10
1240.9129592511
 20
-537.1944301475
 10
1239.2998184265
 20
-537.9106258716
 10
1237.6771551687
 20
-538.9191934792
 10
1236.0830033292
 20
-540.1964930002
 10
1234.5547284759
 20
-541.7125856167
 10
1233.128152076
 20
-543.4319354025
 10
1231.8367118713
 20
-545.3142422561
 10
1230.7106781256
 20
-547.3153865
 10
1229.7764441155
 20
-549.3884630094
 10
1229.0559074945
 20
-551.4848806278
 10
1228.5659570301
 20
-553.5555011033
 10
1228.318076746
 20
-555.5517908467
 10
1228.318076746
 20
-557.4269585185
 10
1228.5659570301
 20
-559.1370517778
 10
1229.0559074945
 20
-560.641987488
 10
1229.7764441155
 20
-561.9064912315
 10
1230.7106781256
 20
-562.9009241124
 10
1231.3941660908
 20
-563.3750130575
  0
LWPOLYLINE
  5
258
330
1F
100
AcDbEntity
  8
0
  6
Continuous
 62
     1
370
    25
100
AcDbPolyline
 90
       22
 70
   128
 43
0.0
 10
990.0667389002
 20
-981.3635617626
 10
988.9973398907
 20
-980.901503323
 10
987.634332253
 20
-980.6690705865
 10
986.1525588086
 20
-980.7574079042
 10
984.5867510709
 20
-981.1644447241
 10
982.9736102463
 20
-981.8806404481
 10
981.3509469886
 20
-982.8892080557
 10
979.756795149
 20
-984.1665075768
 10
978.2285202957
 20
-985.6826001932
 10
976.8019438958
 20
-987.401949979
 10
975.5105036911
 20
-989.2842568326
 10
974.3844699454
 20
-991.2854010765
 10
973.4502359354
 20
-993.3584775859
 10
972.7296993143
 20
-995.4548952043
 10
972.2397488499
 20
-997.5255156798
 10
971.9918685658
 20
-999.5218054232
 10
971.9918685658
 20
-1001.396973095
 10
972.2397488499
 20
-1003.1070663543
 10
972.7296993143
 20
-1004.6120020645
 10
973.4502359354
 20
-1005.876505808
 10
974.3844699454
 20
-1006.8709386889
 10
975.0679579106
 20
-1007.345027634
  0
LWPOLYLINE
  5
259
330
1F
100
AcDbEntity
  8
0
  6
Continuous
 62
     1
370
    25
100
AcDbPolyline
 90
       22
 70
   128
 43
0.0
 10
1233.8474494872
 20
-453.1681008295
 10
1232.7780504777
 20
-452.70604239
 10
1231.4150428401
 20
-452.4736096535
 10
1229.9332693956
 20
-452.5619469711
 10
1228.3674616579
 20
-452.968983791
 10
1226.7543208333
 20
-453.685179515
 10
1225.1316575756
 20
-454.6937471226
 10
1223.537505736
 20
-455.9710466437
 10
1222.0092308827
 20
-457.4871392601
 10
1220.5826544828
 20
-459.2064890459
 10
1219.2912142781
 20
-461.0887958995
 10
1218.1651805324
 20
-463.0899401434
 10
1217.2309465224
 20
-465.1630166528
 10
1216.5104099013
 20
-467.2594342712
 10
1216.0204594369
 20
-469.3300547467
 10
1215.7725791528
 20
-471.3263444901
 10
1215.7725791528
 20
-473.2015121619
 10
1216.0204594369
 20
-474.9116054212
 10
1216.5104099013
 20
-476.4165411314
 10
1217.2309465224
 20
-477.6810448749
 10
1218.1651805324
 20
-478.6754777558
 10
1218.8486684976
 20
-479.1495667009
  0
LWPOLYLINE
  5
25A
330
1F
100
AcDbEntity
  8
0
  6
Continuous
 62
     1
370
    25
100
AcDbPolyline
 90
       22
 70
   128
 43
0.0
 10
910.8575844688
 20
-1012.6029557292
 10
909.7881854594
 20
-1012.1408972896
 10
908.4251778217
 20
-1011.9084645531
 10
906.9434043772
 20
-1011.9968018708
 10
905.3775966395
 20
-1012.4038386906
 10
903.764455815
 20
-1013.1200344147
 10
902.1417925572
 20
-1014.1286020223
 10
900.5476407176
 20
-1015.4059015433
 10
899.0193658643
 20
-1016.9219941598
 10
897.5927894644
 20
-1018.6413439456
 10
896.3013492598
 20
-1020.5236507992
 10
895.1753155141
 20
-1022.5247950431
 10
894.241081504
 20
-1024.5978715525
 10
893.5205448829
 20
-1026.6942891709
 10
893.0305944185
 20
-1028.7649096464
 10
892.7827141344
 20
-1030.7611993898
 10
892.7827141344
 20
-1032.6363670616
 10
893.0305944185
 20
-1034.3464603209
 10
893.5205448829
 20
-1035.8513960311
 10
894.241081504
 20
-1037.1158997746
 10
895.1753155141
 20
-1038.1103326555
 10
895.8588034793
 20
-1038.5844216006
  0
LWPOLYLINE
  5
25B
330
1F
100
AcDbEntity
  8
0
  6
Continuous
 62
     1
370
    25
100
AcDbPolyline
 90
       22
 70
   128
 43
0.0
 10
1197.4389974216
 20
-391.6719512006
 10
1196.3695984122
 20
-391.209892761
 10
1195.0065907745
 20
-390.9774600245
 10
1193.52481733
 20
-391.0657973422
 10
1191.9590095924
 20
-391.472834162
 10
1190.3458687678
 20
-392.1890298861
 10
1188.72320551
 20
-393.1975974937
 10
1187.1290536705
 20
-394.4748970147
 10
1185.6007788172
 20
-395.9909896312
 10
1184.1742024173
 20
-397.710339417
 10
1182.8827622126
 20
-399.5926462706
 10
1181.7567284669
 20
-401.5937905145
 10
1180.8224944568
 20
-403.6668670239
 10
1180.1019578357
 20
-405.7632846423
 10
1179.6120073714
 20
-407.8339051178
 10
1179.3641270873
 20
-409.8301948612
 10
1179.3641270873
 20
-411.705362533
 10
1179.6120073714
 20
-413.4154557923
 10
1180.1019578357
 20
-414.9203915025
 10
1180.8224944568
 20
-416.184895246
 10
1181.7567284669
 20
-417.1793281269
 10
1182.4402164321
 20
-417.653417072
  0
LWPOLYLINE
  5
25C
330
1F
100
AcDbEntity
  8
0
  6
Continuous
 62
     1
370
    25
100
AcDbPolyline
 90
       22
 70
   128
 43
0.0
 10
839.4019739558
 20
-1011.810265014
 10
838.3325749464
 20
-1011.3482065745
 10
836.9695673087
 20
-1011.115773838
 10
835.4877938642
 20
-1011.2041111556
 10
833.9219861266
 20
-1011.6111479755
 10
832.308845302
 20
-1012.3273436996
 10
830.6861820442
 20
-1013.3359113071
 10
829.0920302047
 20
-1014.6132108282
 10
827.5637553513
 20
-1016.1293034446
 10
826.1371789515
 20
-1017.8486532305
 10
824.8457387468
 20
-1019.730960084
 10
823.7197050011
 20
-1021.7321043279
 10
822.785470991
 20
-1023.8051808373
 10
822.0649343699
 20
-1025.9015984558
 10
821.5749839055
 20
-1027.9722189312
 10
821.3271036214
 20
-1029.9685086746
 10
821.3271036214
 20
-1031.8436763464
 10
821.5749839055
 20
-1033.5537696057
 10
822.0649343699
 20
-1035.0587053159
 10
822.785470991
 20
-1036.3232090594
 10
823.7197050011
 20
-1037.3176419403
 10
824.4031929663
 20
-1037.7917308854
  0
LWPOLYLINE
  5
25D
330
1F
100
AcDbEntity
  8
0
  6
Continuous
 62
     1
370
    25
100
AcDbPolyline
 90
       22
 70
   128
 43
0.0
 10
1140.7315038446
 20
-358.9247698939
 10
1139.6621048351
 20
-358.4627114543
 10
1138.2990971974
 20
-358.2302787178
 10
1136.817323753
 20
-358.3186160355
 10
1135.2515160153
 20
-358.7256528553
 10
1133.6383751907
 20
-359.4418485794
 10
1132.0157119329
 20
-360.450416187
 10
1130.4215600934
 20
-361.727715708
 10
1128.8932852401
 20
-363.2438083245
 10
1127.4667088402
 20
-364.9631581103
 10
1126.1752686355
 20
-366.8454649639
 10
1125.0492348898
 20
-368.8466092078
 10
1124.1150008797
 20
-370.9196857172
 10
1123.3944642587
 20
-373.0161033356
 10
1122.9045137943
 20
-375.0867238111
 10
1122.6566335102
 20
-377.0830135545
 10
1122.6566335102
 20
-378.9581812263
 10
1122.9045137943
 20
-380.6682744856
 10
1123.3944642587
 20
-382.1732101958
 10
1124.1150008797
 20
-383.4377139393
 10
1125.0492348898
 20
-384.4321468202
 10
1125.732722855
 20
-384.9062357653
  0
LWPOLYLINE
  5
25E
330
1F
100
AcDbEntity
  8
0
  6
Continuous
 62
     1
370
    25
100
AcDbPolyline
 90
       22
 70
   128
 43
0.0
 10
782.6944803787
 20
-979.0630837073
 10
781.6250813693
 20
-978.6010252678
 10
780.2620737316
 20
-978.3685925313
 10
778.7803002871
 20
-978.4569298489
 10
777.2144925495
 20
-978.8639666688
 10
775.6013517249
 20
-979.5801623929
 10
773.9786884671
 20
-980.5887300004
 10
772.3845366276
 20
-981.8660295215
 10
770.8562617742
 20
-983.3821221379
 10
769.4296853744
 20
-985.1014719238
 10
768.1382451697
 20
-986.9837787773
 10
767.012211424
 20
-988.9849230212
 10
766.0779774139
 20
-991.0579995306
 10
765.3574407928
 20
-993.1544171491
 10
764.8674903284
 20
-995.2250376245
 10
764.6196100444
 20
-997.2213273679
 10
764.6196100444
 20
-999.0964950397
 10
764.8674903284
 20
-1000.806588299
 10
765.3574407928
 20
-1002.3115240092
 10
766.0779774139
 20
-1003.5760277527
 10
767.012211424
 20
-1004.5704606336
 10
767.6956993892
 20
-1005.0445495787
  0
LWPOLYLINE
  5
25F
330
1F
100
AcDbEntity
  8
0
  6
Continuous
 62
     1
370
    25
100
AcDbPolyline
 90
       22
 70
   128
 43
0.0
 10
1069.2758933316
 20
-358.1320791787
 10
1068.2064943221
 20
-357.6700207392
 10
1066.8434866845
 20
-357.4375880027
 10
1065.36171324
 20
-357.5259253203
 10
1063.7959055023
 20
-357.9329621402
 10
1062.1827646777
 20
-358.6491578643
 10
1060.56010142
 20
-359.6577254718
 10
1058.9659495804
 20
-360.9350249929
 10
1057.4376747271
 20
-362.4511176093
 10
1056.0110983272
 20
-364.1704673952
 10
1054.7196581225
 20
-366.0527742487
 10
1053.5936243768
 20
-368.0539184926
 10
1052.6593903668
 20
-370.126995002
 10
1051.9388537457
 20
-372.2234126205
 10
1051.4489032813
 20
-374.2940330959
 10
1051.2010229972
 20
-376.2903228393
 10
1051.2010229972
 20
-378.1654905111
 10
1051.4489032813
 20
-379.8755837704
 10
1051.9388537457
 20
-381.3805194806
 10
1052.6593903668
 20
-382.6450232241
 10
1053.5936243768
 20
-383.639456105
 10
1054.277112342
 20
-384.1135450501
  0
LWPOLYLINE
  5
260
330
1F
100
AcDbEntity
  8
0
  6
Continuous
 62
     1
370
    25
100
AcDbPolyline
 90
       22
 70
   128
 43
0.0
 10
746.2860283132
 20
-917.5669340784
 10
745.2166293038
 20
-917.1048756389
 10
743.8536216661
 20
-916.8724429024
 10
742.3718482216
 20
-916.96078022
 10
740.8060404839
 20
-917.3678170399
 10
739.1928996594
 20
-918.0840127639
 10
737.5702364016
 20
-919.0925803715
 10
735.976084562
 20
-920.3698798926
 10
734.4478097087
 20
-921.885972509
 10
733.0212333088
 20
-923.6053222948
 10
731.7297931042
 20
-925.4876291484
 10
730.6037593585
 20
-927.4887733923
 10
729.6695253484
 20
-929.5618499017
 10
728.9489887273
 20
-931.6582675201
 10
728.4590382629
 20
-933.7288879956
 10
728.2111579788
 20
-935.725177739
 10
728.2111579788
 20
-937.6003454108
 10
728.4590382629
 20
-939.3104386701
 10
728.9489887273
 20
-940.8153743803
 10
729.6695253484
 20
-942.0798781238
 10
730.6037593585
 20
-943.0743110047
 10
731.2872473237
 20
-943.5483999498
  0
LWPOLYLINE
  5
261
330
1F
100
AcDbEntity
  8
0
  6
Continuous
 62
     1
370
    25
100
AcDbPolyline
 90
       22
 70
   128
 43
0.0
 10
990.0667389002
 20
-389.3714731453
 10
988.9973398908
 20
-388.9094147058
 10
987.6343322531
 20
-388.6769819693
 10
986.1525588086
 20
-388.7653192869
 10
984.586751071
 20
-389.1723561068
 10
982.9736102464
 20
-389.8885518308
 10
981.3509469886
 20
-390.8971194384
 10
979.7567951491
 20
-392.1744189595
 10
978.2285202957
 20
-393.6905115759
 10
976.8019438959
 20
-395.4098613617
 10
975.5105036912
 20
-397.2921682153
 10
974.3844699455
 20
-399.2933124592
 10
973.4502359354
 20
-401.3663889686
 10
972.7296993143
 20
-403.462806587
 10
972.2397488499
 20
-405.5334270625
 10
971.9918685658
 20
-407.5297168059
 10
971.9918685658
 20
-409.4048844777
 10
972.2397488499
 20
-411.114977737
 10
972.7296993143
 20
-412.6199134472
 10
973.4502359354
 20
-413.8844171907
 10
974.3844699455
 20
-414.8788500716
 10
975.0679579107
 20
-415.3529390167
  0
LWPOLYLINE
  5
262
330
1F
100
AcDbEntity
  8
0
  6
Continuous
 62
     1
370
    25
100
AcDbPolyline
 90
       22
 70
   128
 43
0.0
 10
733.74053072
 20
-833.3414877218
 10
732.6711317106
 20
-832.8794292823
 10
731.3081240729
 20
-832.6469965458
 10
729.8263506284
 20
-832.7353338634
 10
728.2605428908
 20
-833.1423706833
 10
726.6474020662
 20
-833.8585664074
 10
725.0247388084
 20
-834.8671340149
 10
723.4305869689
 20
-836.144433536
 10
721.9023121155
 20
-837.6605261524
 10
720.4757357157
 20
-839.3798759383
 10
719.184295511
 20
-841.2621827918
 10
718.0582617653
 20
-843.2633270357
 10
717.1240277552
 20
-845.3364035451
 10
716.4034911341
 20
-847.4328211636
 10
715.9135406697
 20
-849.503441639
 10
715.6656603857
 20
-851.4997313824
 10
715.6656603857
 20
-853.3748990542
 10
715.9135406697
 20
-855.0849923135
 10
716.4034911341
 20
-856.5899280237
 10
717.1240277552
 20
-857.8544317672
 10
718.0582617653
 20
-858.8488646481
 10
718.7417497305
 20
-859.3229535932
  0
LWPOLYLINE
  5
263
330
1F
100
AcDbEntity
  8
0
  6
Continuous
 62
     1
370
    25
100
AcDbPolyline
 90
       22
 70
   128
 43
0.0
 10
910.8575844688
 20
-449.5850222545
 10
909.7881854594
 20
-449.122963815
 10
908.4251778217
 20
-448.8905310785
 10
906.9434043772
 20
-448.9788683961
 10
905.3775966396
 20
-449.385905216
 10
903.764455815
 20
-450.1021009401
 10
902.1417925572
 20
-451.1106685476
 10
900.5476407177
 20
-452.3879680687
 10
899.0193658644
 20
-453.9040606851
 10
897.5927894645
 20
-455.623410471
 10
896.3013492598
 20
-457.5057173245
 10
895.1753155141
 20
-459.5068615684
 10
894.241081504
 20
-461.5799380778
 10
893.5205448829
 20
-463.6763556963
 10
893.0305944186
 20
-465.7469761717
 10
892.7827141345
 20
-467.7432659151
 10
892.7827141345
 20
-469.6184335869
 10
893.0305944186
 20
-471.3285268462
 10
893.5205448829
 20
-472.8334625564
 10
894.241081504
 20
-474.0979662999
 10
895.1753155141
 20
-475.0923991809
 10
895.8588034793
 20
-475.5664881259
  0
LWPOLYLINE
  5
264
330
1F
100
AcDbEntity
  8
0
  6
Continuous
 62
     1
370
    25
100
AcDbPolyline
 90
       22
 70
   128
 43
0.0
 10
746.2860283132
 20
-734.6313181601
 10
745.2166293038
 20
-734.1692597206
 10
743.8536216661
 20
-733.9368269841
 10
742.3718482216
 20
-734.0251643017
 10
740.806040484
 20
-734.4322011216
 10
739.1928996594
 20
-735.1483968457
 10
737.5702364016
 20
-736.1569644532
 10
735.9760845621
 20
-737.4342639743
 10
734.4478097087
 20
-738.9503565907
 10
733.0212333089
 20
-740.6697063766
 10
731.7297931042
 20
-742.5520132301
 10
730.6037593585
 20
-744.5531574741
 10
729.6695253484
 20
-746.6262339834
 10
728.9489887273
 20
-748.7226516019
 10
728.4590382629
 20
-750.7932720773
 10
728.2111579789
 20
-752.7895618207
 10
728.2111579789
 20
-754.6647294925
 10
728.4590382629
 20
-756.3748227518
 10
728.9489887273
 20
-757.879758462
 10
729.6695253484
 20
-759.1442622056
 10
730.6037593585
 20
-760.1386950865
 10
731.2872473237
 20
-760.6127840315
  0
LWPOLYLINE
  5
265
330
1F
100
AcDbEntity
  8
0
  6
Continuous
 62
     1
370
    25
100
AcDbPolyline
 90
       22
 70
   128
 43
0.0
 10
839.4019739558
 20
-532.8786047871
 10
838.3325749464
 20
-532.4165463476
 10
836.9695673087
 20
-532.1841136111
 10
835.4877938643
 20
-532.2724509287
 10
833.9219861266
 20
-532.6794877486
 10
832.308845302
 20
-533.3956834727
 10
830.6861820442
 20
-534.4042510802
 10
829.0920302047
 20
-535.6815506013
 10
827.5637553514
 20
-537.1976432177
 10
826.1371789515
 20
-538.9169930036
 10
824.8457387468
 20
-540.7992998571
 10
823.7197050011
 20
-542.800444101
 10
822.785470991
 20
-544.8735206104
 10
822.06493437
 20
-546.9699382289
 10
821.5749839056
 20
-549.0405587043
 10
821.3271036215
 20
-551.0368484477
 10
821.3271036215
 20
-552.9120161195
 10
821.5749839056
 20
-554.6221093788
 10
822.06493437
 20
-556.127045089
 10
822.785470991
 20
-557.3915488325
 10
823.7197050011
 20
-558.3859817134
 10
824.4031929663
 20
-558.8600706585
  0
LWPOLYLINE
  5
266
330
1F
100
AcDbEntity
  8
0
  6
Continuous
 62
     1
370
    25
100
AcDbPolyline
 90
       22
 70
   128
 43
0.0
 10
782.6944803788
 20
-631.0988645442
 10
781.6250813693
 20
-630.6368061047
 10
780.2620737316
 20
-630.4043733682
 10
778.7803002872
 20
-630.4927106858
 10
777.2144925495
 20
-630.8997475057
 10
775.6013517249
 20
-631.6159432298
 10
773.9786884671
 20
-632.6245108373
 10
772.3845366276
 20
-633.9018103584
 10
770.8562617743
 20
-635.4179029748
 10
769.4296853744
 20
-637.1372527607
 10
768.1382451697
 20
-639.0195596142
 10
767.012211424
 20
-641.0207038582
 10
766.0779774139
 20
-643.0937803675
 10
765.3574407929
 20
-645.190197986
 10
764.8674903285
 20
-647.2608184614
 10
764.6196100444
 20
-649.2571082049
 10
764.6196100444
 20
-651.1322758767
 10
764.8674903285
 20
-652.842369136
 10
765.3574407929
 20
-654.3473048461
 10
766.0779774139
 20
-655.6118085897
 10
767.012211424
 20
-656.6062414706
 10
767.6956993892
 20
-657.0803304157
  0
ENDSEC
  0
SECTION
  2
OBJECTS
  0
DICTIONARY
  5
C
330
0
100
AcDbDictionary
281
     1
  3
ACAD_GROUP
350
D
  3
ACAD_LAYOUT
350
1A
  3
ACAD_MLINESTYLE
350
17
  3
ACAD_PLOTSETTINGS
350
19
  3
ACAD_PLOTSTYLENAME
350
E
  3
ACAD_SCALELIST
350
47
  3
DWGPROPS
350
267
  0
DICTIONARY
  5
D
102
{ACAD_REACTORS
330
C
102
}
330
C
100
AcDbDictionary
281
     1
  0
DICTIONARY
  5
1A
102
{ACAD_REACTORS
330
C
102
}
330
C
100
AcDbDictionary
281
     1
  3
Layout1
350
1E
  3
Layout2
350
26
  3
Model
350
22
  0
DICTIONARY
  5
17
102
{ACAD_REACTORS
330
C
102
}
330
C
100
AcDbDictionary
281
     1
  3
Standard
350
18
  0
DICTIONARY
  5
19
102
{ACAD_REACTORS
330
C
102
}
330
C
100
AcDbDictionary
281
     1
  0
ACDBDICTIONARYWDFLT
  5
E
102
{ACAD_REACTORS
330
C
102
}
330
C
100
AcDbDictionary
281
     1
  3
Normal
350
F
100
AcDbDictionaryWithDefault
340
F
  0
DICTIONARY
  5
47
102
{ACAD_REACTORS
330
C
102
}
330
C
100
AcDbDictionary
281
     1
  3
A0
350
48
  3
A1
350
49
  3
A2
350
4A
  3
A3
350
4B
  3
A4
350
4C
  3
A5
350
4D
  3
A6
350
4E
  3
A7
350
4F
  3
A8
350
50
  3
A9
350
51
  3
B0
350
52
  3
B1
350
53
  3
B2
350
54
  3
B3
350
55
  3
B4
350
56
  3
B5
350
57
  3
B6
350
58
  3
B7
350
59
  3
B8
350
5A
  3
B9
350
5B
  3
C0
350
5C
  3
C1
350
5D
  3
C2
350
5E
  3
C3
350
5F
  3
C4
350
60
  3
C5
350
61
  3
C6
350
62
  3
C7
350
63
  3
C8
350
64
  3
C9
350
65
  3
D0
350
66
  3
D1
350
67
  3
D2
350
68
  0
XRECORD
  5
267
102
{ACAD_REACTORS
330
C
102
}
330
C
100
AcDbXrecord
280
     1
  1
DWGPROPS COOKIE
  2

  3

  4

  6

  7

  8
b.kav
  9

300
=
301
=
302
=
303
=
304
=
305
=
306
=
307
=
308
=
309
=
 40
0.0
 41
2459741.466109271
 42
2459741.466112384
  1

 90
        0
  0
LAYOUT
  5
1E
102
{ACAD_REACTORS
330
1A
102
}
330
1A
100
AcDbPlotSettings
  1

  2
none_device
  4

  6

 40
0.0
 41
0.0
 42
0.0
 43
0.0
 44
0.0
 45
0.0
 46
0.0
 47
0.0
 48
0.0
 49
0.0
140
0.0
141
0.0
142
1.0
143
1.0
 70
   688
 72
     1
 73
     0
 74
     5
  7

 75
    16
147
1.0
148
0.0
149
0.0
100
AcDbLayout
  1
Layout1
 70
     1
 71
     1
 10
0.0
 20
0.0
 11
420.0
 21
297.0
 12
0.0
 22
0.0
 32
0.0
 14
1.0000000000E+20
 24
1.0000000000E+20
 34
1.0000000000E+20
 15
-1.0000000000E+20
 25
-1.0000000000E+20
 35
-1.0000000000E+20
146
0.0
 13
0.0
 23
0.0
 33
0.0
 16
1.0
 26
0.0
 36
0.0
 17
0.0
 27
1.0
 37
0.0
 76
     0
330
1B
  0
LAYOUT
  5
26
102
{ACAD_REACTORS
330
1A
102
}
330
1A
100
AcDbPlotSettings
  1

  2
none_device
  4

  6

 40
0.0
 41
0.0
 42
0.0
 43
0.0
 44
0.0
 45
0.0
 46
0.0
 47
0.0
 48
0.0
 49
0.0
140
0.0
141
0.0
142
1.0
143
1.0
 70
   688
 72
     1
 73
     0
 74
     5
  7

 75
    16
147
1.0
148
0.0
149
0.0
100
AcDbLayout
  1
Layout2
 70
     1
 71
     2
 10
0.0
 20
0.0
 11
0.0
 21
0.0
 12
0.0
 22
0.0
 32
0.0
 14
0.0
 24
0.0
 34
0.0
 15
0.0
 25
0.0
 35
0.0
146
0.0
 13
0.0
 23
0.0
 33
0.0
 16
1.0
 26
0.0
 36
0.0
 17
0.0
 27
1.0
 37
0.0
 76
     0
330
23
  0
LAYOUT
  5
22
102
{ACAD_REACTORS
330
1A
102
}
330
1A
100
AcDbPlotSettings
  1

  2
none_device
  4
Letter_(8.50_x_11.00_Inches)
  6

 40
6.35
 41
6.35
 42
6.35000508
 43
6.35000508
 44
215.9
 45
279.4
 46
0.0
 47
0.0
 48
0.0
 49
0.0
140
0.0
141
0.0
142
1.0
143
1.0
 70
  1712
 72
     1
 73
     0
 74
     0
  7

 75
     0
147
1.0
148
0.0
149
0.0
100
AcDbLayout
  1
Model
 70
     1
 71
     0
 10
0.0
 20
0.0
 11
279.4
 21
215.9
 12
0.0
 22
0.0
 32
0.0
 14
0.0
 24
0.0
 34
0.0
 15
279.4
 25
215.9
 35
0.0
146
0.0
 13
0.0
 23
0.0
 33
0.0
 16
1.0
 26
0.0
 36
0.0
 17
0.0
 27
1.0
 37
0.0
 76
     0
330
1F
331
29
  0
MLINESTYLE
  5
18
102
{ACAD_REACTORS
330
17
102
}
330
17
100
AcDbMlineStyle
  2
Standard
 70
     0
  3

 62
   256
 51
90.0
 52
90.0
 71
     2
 49
0.5
 62
   256
  6
BYLAYER
 49
-0.5
 62
   256
  6
BYLAYER
  0
ACDBPLACEHOLDER
  5
F
102
{ACAD_REACTORS
330
E
102
}
330
E
  0
SCALE
  5
48
102
{ACAD_REACTORS
330
47
102
}
330
47
100
AcDbScale
 70
     0
300
1:1
140
1.0
141
1.0
290
     1
  0
SCALE
  5
49
102
{ACAD_REACTORS
330
47
102
}
330
47
100
AcDbScale
 70
     0
300
1:2
140
1.0
141
2.0
290
     0
  0
SCALE
  5
4A
102
{ACAD_REACTORS
330
47
102
}
330
47
100
AcDbScale
 70
     0
300
1:4
140
1.0
141
4.0
290
     0
  0
SCALE
  5
4B
102
{ACAD_REACTORS
330
47
102
}
330
47
100
AcDbScale
 70
     0
300
1:5
140
1.0
141
5.0
290
     0
  0
SCALE
  5
4C
102
{ACAD_REACTORS
330
47
102
}
330
47
100
AcDbScale
 70
     0
300
1:8
140
1.0
141
8.0
290
     0
  0
SCALE
  5
4D
102
{ACAD_REACTORS
330
47
102
}
330
47
100
AcDbScale
 70
     0
300
1:10
140
1.0
141
10.0
290
     0
  0
SCALE
  5
4E
102
{ACAD_REACTORS
330
47
102
}
330
47
100
AcDbScale
 70
     0
300
1:16
140
1.0
141
16.0
290
     0
  0
SCALE
  5
4F
102
{ACAD_REACTORS
330
47
102
}
330
47
100
AcDbScale
 70
     0
300
1:20
140
1.0
141
20.0
290
     0
  0
SCALE
  5
50
102
{ACAD_REACTORS
330
47
102
}
330
47
100
AcDbScale
 70
     0
300
1:30
140
1.0
141
30.0
290
     0
  0
SCALE
  5
51
102
{ACAD_REACTORS
330
47
102
}
330
47
100
AcDbScale
 70
     0
300
1:40
140
1.0
141
40.0
290
     0
  0
SCALE
  5
52
102
{ACAD_REACTORS
330
47
102
}
330
47
100
AcDbScale
 70
     0
300
1:50
140
1.0
141
50.0
290
     0
  0
SCALE
  5
53
102
{ACAD_REACTORS
330
47
102
}
330
47
100
AcDbScale
 70
     0
300
1:100
140
1.0
141
100.0
290
     0
  0
SCALE
  5
54
102
{ACAD_REACTORS
330
47
102
}
330
47
100
AcDbScale
 70
     0
300
2:1
140
2.0
141
1.0
290
     0
  0
SCALE
  5
55
102
{ACAD_REACTORS
330
47
102
}
330
47
100
AcDbScale
 70
     0
300
4:1
140
4.0
141
1.0
290
     0
  0
SCALE
  5
56
102
{ACAD_REACTORS
330
47
102
}
330
47
100
AcDbScale
 70
     0
300
8:1
140
8.0
141
1.0
290
     0
  0
SCALE
  5
57
102
{ACAD_REACTORS
330
47
102
}
330
47
100
AcDbScale
 70
     0
300
10:1
140
10.0
141
1.0
290
     0
  0
SCALE
  5
58
102
{ACAD_REACTORS
330
47
102
}
330
47
100
AcDbScale
 70
     0
300
100:1
140
100.0
141
1.0
290
     0
  0
SCALE
  5
59
102
{ACAD_REACTORS
330
47
102
}
330
47
100
AcDbScale
 70
     0
300
1/128" = 1'-0"
140
0.0078125
141
12.0
290
     0
  0
SCALE
  5
5A
102
{ACAD_REACTORS
330
47
102
}
330
47
100
AcDbScale
 70
     0
300
1/64" = 1'-0"
140
0.015625
141
12.0
290
     0
  0
SCALE
  5
5B
102
{ACAD_REACTORS
330
47
102
}
330
47
100
AcDbScale
 70
     0
300
1/32" = 1'-0"
140
0.03125
141
12.0
290
     0
  0
SCALE
  5
5C
102
{ACAD_REACTORS
330
47
102
}
330
47
100
AcDbScale
 70
     0
300
1/16" = 1'-0"
140
0.0625
141
12.0
290
     0
  0
SCALE
  5
5D
102
{ACAD_REACTORS
330
47
102
}
330
47
100
AcDbScale
 70
     0
300
3/32" = 1'-0"
140
0.09375
141
12.0
290
     0
  0
SCALE
  5
5E
102
{ACAD_REACTORS
330
47
102
}
330
47
100
AcDbScale
 70
     0
300
1/8" = 1'-0"
140
0.125
141
12.0
290
     0
  0
SCALE
  5
5F
102
{ACAD_REACTORS
330
47
102
}
330
47
100
AcDbScale
 70
     0
300
3/16" = 1'-0"
140
0.1875
141
12.0
290
     0
  0
SCALE
  5
60
102
{ACAD_REACTORS
330
47
102
}
330
47
100
AcDbScale
 70
     0
300
1/4" = 1'-0"
140
0.25
141
12.0
290
     0
  0
SCALE
  5
61
102
{ACAD_REACTORS
330
47
102
}
330
47
100
AcDbScale
 70
     0
300
3/8" = 1'-0"
140
0.375
141
12.0
290
     0
  0
SCALE
  5
62
102
{ACAD_REACTORS
330
47
102
}
330
47
100
AcDbScale
 70
     0
300
1/2" = 1'-0"
140
0.5
141
12.0
290
     0
  0
SCALE
  5
63
102
{ACAD_REACTORS
330
47
102
}
330
47
100
AcDbScale
 70
     0
300
3/4" = 1'-0"
140
0.75
141
12.0
290
     0
  0
SCALE
  5
64
102
{ACAD_REACTORS
330
47
102
}
330
47
100
AcDbScale
 70
     0
300
1" = 1'-0"
140
1.0
141
12.0
290
     0
  0
SCALE
  5
65
102
{ACAD_REACTORS
330
47
102
}
330
47
100
AcDbScale
 70
     0
300
1-1/2" = 1'-0"
140
1.5
141
12.0
290
     0
  0
SCALE
  5
66
102
{ACAD_REACTORS
330
47
102
}
330
47
100
AcDbScale
 70
     0
300
3" = 1'-0"
140
3.0
141
12.0
290
     0
  0
SCALE
  5
67
102
{ACAD_REACTORS
330
47
102
}
330
47
100
AcDbScale
 70
     0
300
6" = 1'-0"
140
6.0
141
12.0
290
     0
  0
SCALE
  5
68
102
{ACAD_REACTORS
330
47
102
}
330
47
100
AcDbScale
 70
     0
300
1'-0" = 1'-0"
140
12.0
141
12.0
290
     0
  0
ENDSEC
  0
EOF
